#1
I need help finishing this tab. The main things I'm missing are the solo and the verse. There are also two guitars playing as well. Sam (the lead) mostly just hits a couple chords, help on those would be cool too.


Here's a link to the song on youtube: http://youtube.com/watch?v=y4cwnJcbjTQ

Here's a couple videos of them live if that helps anyone:
http://youtube.com/watch?v=sEEyZF7XeiI
http://youtube.com/watch?v=3pNU4RGp2cU
http://youtube.com/watch?v=M-KchuUPEw0


I know nothing's even because I didn't put the tab in the right way however I think you guys can still get the idea


Believe Tab by The Bravery :
This is my very first tab and I know its not perfect or complete but it's a start.


Comments or edits would be greatly appreciated so that we can get a correct, 100% complete tab done of this awesome song.


Much thanks to mychemkid202 for tabbing the bass intro for guitar.


Tuning: Standard


Intro (Bass tabbed for guitar)
e|--------------------------------------------------------------------------|
B|--------------------------------------------------------------------------|
G|--------------------------------------------------------------------------|x2
D|--------------------------------------------------------------------------|
A|--6-4-------------------4-------4---------------------------------------|
A|--------6-4-6----6-4-6-------6-----1-1-------------------------------|


e|----------------|
B|----------------|
G|----------------|
D|----------------|
A|--6-4----------|
E|--------6-4----|


The the actual guitar comes in, sounds great with lots of reverb


Refrain:


e|-9-9-9-9-9-9-9-9-8-8-8-8-8-8-8-8-11-11-11-11-11-11-11-11--------------------|
B|-6-6-6-6-6-6-6-6-6-6-6-6-6-6-6-6-9--9--9--9--9--9--9--9--11-11-11-11-11-11|
G|--------------------------------------------------------------------------8--8--8--8--8--8-|
D|-----------------------------------------------------------------------------------------------|
A|-----------------------------------------------------------------------------------------------|
E|-----------------------------------------------------------------------------------------------|


e|-11-11-|
B|-8--8---|x2
G|---------|
D|---------|
A|---------|
E|---------|


Verse:


I'm not sure of the verse yet but it kinda sounds SOMETHING like this: (help would be nice here)

e|-11----11----11----11~---|
B|-12----12----12----11~---|
G|-13----13----13----12~---|x8
D|-13----13----13----13~---|
A|-11----11----11----13~---|
E|-11----11----11----11~---|


At the end of the verse the chorus mixes right in


Chorus:


e|-13-13-13-13-13-13-13-13-13-13-13-13-13-13-13-13-13-13-13-13-13-13-16-16-|
B|------------------------------------------------------------11-11-11-11-11-11-11-11-14-14-|
G|------------------------------------------------------------------------------------------------------|
D|------------------------------------------------------------------------------------------------------|
A|------------------------------------------------------------------------------------------------------|
E|------------------------------------------------------------------------------------------------------|


e|-16-16-16-16-16-16-11-11-11-11-11-11-11-11-------------------------------------|
B|-14-14-14-14-14-14-9--9--9---9----9---9---9---9--11-11-11-11-11-11-11-11--|
G|--------------------------------------------------------------8--8---8---8---8---8--8--8---|x4
D|------------------------------------------------------------------------------------------------|
A|------------------------------------------------------------------------------------------------|
E|------------------------------------------------------------------------------------------------|


Refrain


e|-9-9-9-9-9-9-9-9-8-8-8-8-8-8-8-8-11-11-11-11-11-11-11-11------------------------|
B|-6-6-6-6-6-6-6-6-6-6-6-6-6-6-6-6-9--9---9---9---9--9---9--9--11-11-11-11-11-11|
G|-----------------------------------------------------------------------------8--8--8--8---8--8--|
D|---------------------------------------------------------------------------------------------------|
A|---------------------------------------------------------------------------------------------------|
E|---------------------------------------------------------------------------------------------------|


e|-11-11-|
B|-8--8---|x1
G|----=---|
D|---------|
A|---------|
E|---------|


Back to Verse (not quite right)


e|-11----11----11----11~---|
B|-12----12----12----11~---|
G|-13----13----13----12~---|x4
D|-13----13----13----13~---|
A|-11----11----11----13~---|
E|-11----11----11----11~---|


Chorus:


e|-13-13-13-13-13-13-13-13-13-13-13-13-13-13-13-13-13-13-13-13-13-13-16-16-|
B|------------------------------------------------------------11-11-11-11-11-11-11-11-14-14-|
G|------------------------------------------------------------------------------------------------------|
D|------------------------------------------------------------------------------------------------------|
A|------------------------------------------------------------------------------------------------------|
E|------------------------------------------------------------------------------------------------------|


e|-16-16-16-16-16-16-11-11-11-11-11-11-11-11------------------------------------|
B|-14-14-14-14-14-14-9---9---9---9--9---9--9---9--11-11-11-11-11-11-11-11--|
G|-------------------------------------------------------------8--8---8--8---8---8---8--8---|x4
D|-----------------------------------------------------------------------------------------------|
A|-----------------------------------------------------------------------------------------------|
E|-----------------------------------------------------------------------------------------------|

Then on to the solo and honestly I'm going to work on it but it's probably barely in my ability to play right now let alone properly figure out, hopefully someone will help me out with this.

It does have the chorus backing it though (x2)

After solo, it has a sort of breakdown which possibly has some power chords it it but I have no idea.


Chorus:

e|-13-13-13-13-13-13-13-13-13-13-13-13-13-13-13-13-13-13-13-13-13-13-16-16-|
B|------------------------------------------------------------11-11-11-11-11-11-11-11-14-14-|
G|------------------------------------------------------------------------------------------------------|
D|------------------------------------------------------------------------------------------------------|
A|------------------------------------------------------------------------------------------------------|
E|------------------------------------------------------------------------------------------------------|

e|-16-16-16-16-16-16-11-11-11-11-11-11-11-11------------------------------------|
B|-14-14-14-14-14-14-9---9---9---9---9---9--9--9--11-11-11-11-11-11-11-11--|
G|-------------------------------------------------------------8--8---8--8---8---8--8---8---|x8
D|-----------------------------------------------------------------------------------------------|
A|-----------------------------------------------------------------------------------------------|
E|-----------------------------------------------------------------------------------------------|

The last 4 times the chorus is played include breaks where just the drums play.

Song ends on chord I don't know yet.


Order:

Bass Intro
Refrain
Verse
Chorus
Refrain
Verse
Chorus
Solo (with chorus backing)
A Different Verse
Chorus
End


And thats what I have so far, again any help would be greatly appreciated.
Last edited by aoneill at Nov 7, 2007,