#1
guess the song that the tab comes from... quote them for less confusion

heres an easy one (standard tuning)
|---------5-----7------7-----8-------8-|
|-------5---------5--------------5------|
|-----5-------------5--------------5----|
|---7-----------6-------------5---------|
|---------------------------------------|
|---------------------------------------|

sorry, not the best at tab making :P
#2
stairway to heaven
2 ducks and a rabbi walk into a bar.
The rabbi enjoys a nice drink and the ducks are shooed out so that health services aren't called in.
The day proceeds as normal.
#3
stairway

damn you
Quote by Mathamology
One day that guy is gonna lose a whole arm to that blender

and that shall be the day I laugh the hardest
#5
e----------------------------------------
b-----------------------------3----------
g----------------------------------------
d---2--5-5-5-5-4-2-0h2-0-----------------
a---2--2-2-2-2-2-3-3---3--0h2------0-2---
e---0---------------------3------3-------
2 ducks and a rabbi walk into a bar.
The rabbi enjoys a nice drink and the ducks are shooed out so that health services aren't called in.
The day proceeds as normal.
#7
Quote by Magic Jim
e----------------------------------------
b-----------------------------3----------
g----------------------------------------
d---2--5-5-5-5-4-2-0h2-0-----------------
a---2--2-2-2-2-2-3-3---3--0h2------0-2---
e---0---------------------3------3-------



Cannonball - Damien Rice?

If i'm right, somebody else go.
<Han> I love Hitler
#8
Quote by Magic Jim
e----------------------------------------
b-----------------------------3----------
g----------------------------------------
d---2--5-5-5-5-4-2-0h2-0-----------------
a---2--2-2-2-2-2-3-3---3--0h2------0-2---
e---0---------------------3------3-------

i'm thinking iron maiden, but i have no idea.
#10
Guitar 1
e|------------------------------------------|
B|------------------------------------------|
G|------------------------------------------|
D|------9-9--7-7--4-4-------4-4--11-11--9-9-|
A|------------------------------------------|
E|-7-7-----------------5-5------------------| -\

Guitar 2
e|------------------------------------------| -/
B|------------------------------------------|
G|------------------------------------------|
D|------7-7---------------------------------|
A|----------10-10-9-9--7-7--5-5--7--7---9-5-|
E|-7-7--------------------------------------|


little harder, but play it and you'll probably get it
I'm a Fire, and I'll Burn.Burn.Burn.
#11
cannonball it was!
2 ducks and a rabbi walk into a bar.
The rabbi enjoys a nice drink and the ducks are shooed out so that health services aren't called in.
The day proceeds as normal.
#12
Quote by Jonn0
Guitar 1
e|------------------------------------------|
B|------------------------------------------|
G|------------------------------------------|
D|------9-9--7-7--4-4-------4-4--11-11--9-9-|
A|------------------------------------------|
E|-7-7-----------------5-5------------------| -\

Guitar 2
e|------------------------------------------| -/
B|------------------------------------------|
G|------------------------------------------|
D|------7-7---------------------------------|
A|----------10-10-9-9--7-7--5-5--7--7---9-5-|
E|-7-7--------------------------------------|


little harder, but play it and you'll probably get it


that looks like helicopter by bloc party
#13
Guitar 1
e|----------------------------------------|
B|----------------------------------------|
G|----------------------------------------|
D|----------------------------------------|
A|-5-6-7---------------------------2----|
E|--------5-6-7--7-6-5--5-4-3--5-3-0----| 

[img]http://img300.imageshack.us/img300/3760/356h356h365pc1.png[/img]
Die Ruhe vor dem Sturm.
#14
C ||------------------------------------------------------------|
G ||------------------------------------------------------------|
D# ||----------------------------3-3-3-3----------------------|
A# ||-----------3-2-------------------------------------------|
F ||----6----4-------3-4-3-2--------------------------------|
C ||------3----------------------------------2-2-2-2-1-1-1-1-|

---------------------------------------------------------------------|
---------------------------------------------------------------------|
---------------------------------------------------------------------|
---------------------4-5-7---------3-4-6-2-3-5------------------|
------------------------------------------------------2--1--1--1--1--|
--4-4-4-4-3-4-6----------2-3-5----------------2--1--1--1--1--|

You'll never figure this one out.
Last edited by Pingis_Or_Death at Nov 7, 2007,
#15
Quote by Jonn0
Guitar 1
e|----------------------------------------|
B|----------------------------------------|
G|----------------------------------------|
D|----------------------------------------|
A|-5-6-7---------------------------2----|
E|--------5-6-7--7-6-5--5-4-3--5-3-0----|




holy wars...the punishment due

Megadeth
#16
Guitar 1
A B C
d|-------------------------|--------------------|---------------|
A|-------------------------|--------------------|---------------|
F|-------------------------|--------------------|---------------|
C|------11----11-9-9---|--------------------|---------------|
G|------11----11-9-7---|--------------------|-----6-7-9-6-7-|
D|-9999-9--99-9--7-5-|-00000-00000-|-5-7-----------|
.... .. ..... ..... . . . . . . .