#1
I was just wondering if anyone had, or if they were nice enough, could make some tabs for the songs Blind As A Bat and/or The Monster is Loose

I can't find them anywhere

any help would be greatly appreciated
#2
Well I managed to tab out the chorus to "Blind as a Bat"

Its pretty ****ty, but maybe someone will be able to get some tabs or chords based off of that

I used standard tuning

E |---------------------------------------------------------
B |-6-8-10-10--10-10-8-8--8-10-8-6-6------6-----
G |---------------------------------------------5-5---5-5
D |---------------------------------------------------------
A |---------------------------------------------------------
E |-----------------------------------------------------------

and as far as I can tell the intro/verse is something like:

E |-0-0-0-0-0-0-0-0-0-0-0-0-0-0-0-0-0-0-0-0-0-0-0-0
B |-5-5-5-5-5-5-5-5-3-3-3-3-3-3-3-3-1-1-1-1-3-3-3-3
G |--------------------------------------------------------------
D |--------------------------------------------------------------
A |--------------------------------------------------------------
E |--------------------------------------------------------------

No clue about the bridge though, or any chords