#1
I'm looking for riffs similiar to the baroque-style solo in Children of Bodoms song Children of Bodom. It does not have to be baroque at all, just fun to play

Any ideas?

E E E E E E E E
|---------------------------------------|
|---------------------------------------|
|*-----------------------5--4-----------|
|*--------------------4--------7--5--4--|
|------------------6--------------------|
|---7-----------------------------------|
E E E E E E E E E E E E E E E E
--------------------------|-----------8--7------------|
-----------5--------------|--------7--------10--8--7--|
--------4-----7--5--4-----|-----8---------------------|
-----5-----------------7--|--9------------------------|
--7-----------------------|---------------------------|
--------------------------|---------------------------|


You get what style I'm talking about? Cheers, and thanks!
#2
Because of all the guitards at school I can't not hear this and avoid a smile coming to my face

|-------------------------------------------------------------------|
|-------------------------------------------------------------------|
|---0---3---5------0---3---6---5------0---3---5------3---0----------|
|---0---3---5------0---3---6---5------0---3---5------3---0----------|
|-------------------------------------------------------------------|
|-------------------------------------------------------------------|
#3
slayers raining blood or south of heaven

or

icky thump
Quote by cakeandpiemofo
Quote by tuwyci
why are metal musicians prone to fatness?
Cause there music is heavy.


Writing music is hard D:
#4
How are those "funny"?....

I play the Mario Bros. intro riff, bad to the bone, zelda, etc. I'm planning on learning MTV's Jackass intro riff too.
"The future's uncertain, and The End is always near."
-Jim Morrison
#5
Quote by ECwomantoneman
Because of all the guitards at school I can't not hear this and avoid a smile coming to my face

|-------------------------------------------------------------------|
|-------------------------------------------------------------------|
|---0---3---5------0---3---6---5------0---3---5------3---0----------|
|---0---3---5------0---3---6---5------0---3---5------3---0----------|
|-------------------------------------------------------------------|
|-------------------------------------------------------------------|

+100000000000
It's GANDHI not GHANDI

Quote by lewymcgee
oh yea, stanleybach, what are u like the forum ass hole, stop tryin to ruin all the fun u dick head

Quote by webbtje
Stanleybach fucked a tree. My perversion is nothing.
#6
how bout some mc donalds....

|-------------4--2-|
|--2--4--5--------|
|-------------------|
|-------------------|
|-------------------|
|-------------------|

...i'm lovin' it...
#7
+1 to icky thump. The chorus of that song is right fun to play once you get the hang of it. Plus you look pretty bad ass cause it looks hard if you're watching it, but it's not tough to learn.
#9
That was a Double Negitive

-------------------------------------|
---------12/15-13-12-13--------|
------13-----------------14--------|
---14-----------------------15-----|
--------------------------------------|
--------------------------------------|
#11
Quote by SlinkyBlue
How are those "funny"?....

I play the Mario Bros. intro riff, bad to the bone, zelda, etc. I'm planning on learning MTV's Jackass intro riff too.


You mean Corona by The Minutemen?

It's so sad that that one song is the band's only claim to fame... they're excellent.
Steinberger GU/Spirit w/ Moses Graphite neck, EMG 81-85
"Fireball" Pacer/RG hybrid

Furman Power Conditioner
Axe-Fx Standard
ART SLA-1
Yamaha S112V
Peak FCB4N
#12
Geez, guys! I'll def check some of these out.
Also McDonalds is great, AND HOW I WISH TO LEARN SPANISH FLEA!
#13
zelda theme song, haha its not hard, but only so many people know it...

james bond theme song

and this is weird, but throw on some distortion and it sounds badass, but the phantom of the opera song.
-------------------------------
Faded Gibson SG Special - Black ice mod
Seymour Duncan SH-5 in bridge
B-52 AT 112
Ted Weber Mass100 attenuator
EHX Small Clone
EHX Metal Muff
DIY Modded tubescreamer
Dunlop 535Q Wah
Wax Potting tutorial
#14
It's fun to play the underground song from Super Mario Bros xD
-------------------------------------|
-------------------------------------|
-------------------------------------|
-------5------2------3-------------|
-------------------------------------|
---3------0------1-----------------|
#15
Add the Mission Impossible theme to the list. I get a few chuckles from my friends when I play the Theme to the original Transformers Movie.
#16
i like to play the lost woods zelda theme, it annoys my friends but i think its fun!
and the halo theme
#18
I have one riff I made up once, when I wanted to write "the worst riff ever". It's pretty bad but it sounds hilarious (like sqeuaking frog or crazy bird)
e:-2b--------2b-
B:----2b---------
G:-------2b------

Rinse and repeat. Also when you bend the strings, don't bend them to pitch.

It sounds very n00b-y and I was really bored when I wrote it, but it sounds hilarious.
Quote by stratman_13
It's okay Gabel. You kick ass.



18watter video demo

My band

Recognised by the Official EG/GG&A Who To Listen To List 2009