#1
i was wondering if anyone had the tabs for this calling solo by all that remains

thanks in advance
#2
Hmmm.. This one?

                                       W        W                 
  W                   H        E   E   Q        W                 
-------------------|------------------------|--------------------|
-------------------|------------------------|--------------------|
-------------------|-----------9--10--12----|---L----------------|
-------------------|------------------------|--------------------|
-------------------|------------------------|--------------------|
-------------------|------------------------|--------------------|


   W                      W       W                                     
                                           |----3----|    |----3---|    
   Q     Q      E      E  Q       H        E    E    E    E   E    E    
-------------------------------|---------------------------------------|
-------------------------------|---------------------------------------|
---L----12b-----Lpbr---L--9----|--L--------9h--10h--12p--10p--9h--10h--|
-------------------------------|---------------------------------------|
-------------------------------|---------------------------------------|
-------------------------------|---------------------------------------|


                                            T  T  T  T  T   T  T  T   
   |----3---|    |---3---|                                            
   E    E   E    E   E   E  E  E  E   E     E  E  E  E  E   E  E  E   
---------------/10-----------------------|--------8--------10--------|
--------------------13---------------10--|-----6--------8---------8--|
--12p--10p--9-----------10--9--7--7------|--7--------7---------9-----|
-----------------------------------------|---------------------------|
-----------------------------------------|---------------------------|
-----------------------------------------|---------------------------|


   T  T   T   T   T   T   W        W                 
   E  E   E   E   E   E   Q        W                 
--12---------15------15--17----|---L----------------|
---------10------10------------|--------------------|
------9------------------------|--------------------|
-------------------------------|--------------------|
-------------------------------|--------------------|
-------------------------------|--------------------|


   W                                                           
   H         Q      E   E      E   E   E   E   E   E   E   E   
---L---------L\----17------|----------------------------------|
-----------------------18--|--18--18--18--17--18--15------17--|
---------------------------|--------------------------14------|
---------------------------|----------------------------------|
---------------------------|----------------------------------|
---------------------------|----------------------------------|


                                                              W     
   E   E   E   E   E   E   E   E      E   E   E   E   E   E   Q     
----------------------------------|--------------------------------|
----------15----------------------|--------------------------------|
--14--12------12------17----------|--17----------14----------------|
------------------15------15--14--|------14--12------12--14---L----|
----------------------------------|--------------------------------|
----------------------------------|--------------------------------|


   W                                                                      
                    |---3--|      |--3--|   |---3--|  |---3--|  |--3--|   
   H         Q      E   E  E      E  E  E   E  E   E  E  E   E  E  E  E   
------------------------------|------------------------------------------|
-------------------11--10--8--|------------10--8----------------8--6--5--|
------------------------------|--10--9--7---------10--9--7---------------|
---L---------L\---------------|-----------------------------10-----------|
------------------------------|------------------------------------------|
------------------------------|------------------------------------------|


                             W       W    W    W           W                  
  |--3--|  |--3--|  |--3--|                                                   
  E  E  E  E  E  E  E  E  E  Q       Q    Q    H           H.           Q     
----------------------------------|---------------------|--------------------|
-----------------------5--6-------|---------------------|--------------------|
--7--5-----------5--7--------2----|--L------------------|--------------------|
--------8--7--8-------------------|-------3-------------|--------------------|
----------------------------------|------------5--------|--L-----------------|
----------------------------------|---------------------|--------------------|
---------------
VOX AD30VT
BOSS GT8

Want to build a Jackson, to be fairly freaking honest.

Quote by Kanthras
Put some crap in the hole, like something sticky. And liquid-ish.
deviantART: Click Here