#1
Here's another pretty generic rock riff that I came up with a while back, it probably sounds like another song, but I figure I might as well put it up. Tempo is 140bpm


Standard tuning, B minor aeolian
Rhythm Guitar
Intro/Verse 1
e|---------------------------------------------------------------------------------------
B|---------------------------------------------------------------------------------------
G|---------------------------------------------------------------------------------------
D|--9-9999-999-99--5-555--4-44444--------------------------------------------------------
A|--9-9999-999-99--5-555--4-44444--------------------------------------------------------
E|--7-7777-777-77--3-333--2-22222--------------------------------------------------------
								Repeat 6x


Standard tuning, B minor aeolian
Lead Guitar
Intro
e|----------------------------------------------------------------------------------------
B|----------------------------------------------------------------------------------------
G|--11-11-11-12-12-12-11-11---9-9-9-11-11-11-9-9---9-9-9-11-11-11-9-9---7-7-7-9-9-9--9s11v
D|--9--9--9—-9—-9--9—-9--9—---9-9-9-9--9--9--9-9---7-7-7-7--7--7--7-7---5-5-5-5-5-5-------
A|----------------------------------------------------------------------------------------
E|----------------------------------------------------------------------------------------
    PM....................     .................    .................    ...........
						         Start at 2nd time, Repeat 4x


Standard tuning, B minor aeolian
Rhythm Guitar
Bridge
e|---------------------------------------------------------------------------------------
B|---------------------------------------------------------------------------------------
G|---------------------------------------------------------------------------------------
D|--9-9999-999-99-----------------------------------------/12--4-5-5/7-------------------
A|--9-9999-999-99--444-555-44---555-777-55---777-999-77---/12--4-5-5/7--let ring---------
E|--7-7777-777-77--222-222-22---333-333-33---555-555-55---/10--2-3-3/5-------------------
		 PM........    ... ......   ... ... ..		Repeat 2x