#1
hey guys, does anyone know what song this Yngwie Malmsteen acoustic riff is from? I really wanna learn the rest, so all help is appreciated.

 
eb------------------------------------------
Bb--------8---7------------7---5-----7h8p7--
Gb----------9---9------------7---5---------7
Db------9---------9------7---------5--------
Ab----7----------------5-------3-----5------
Eb-0-----------------0----------------------


thanks
man i want a new strat....
#2
Thanks guys once again. it turned out i tabbed it out wrong, so some of you may know it as

eb-----0-3---2---------------2---0------2h3p2-0--
Bb---0-----0----3----------3-------1-----------3-
Gb------------------2----2-----0------0----------
Db-----------------------------------------------
Ab-----------------------------------------------
Eb-0-------------------0-------------------------

this song is known to me as Icarus Suite Opus 4, but thanks again
(i recommend learning this part of the song, very very good peice to play)
man i want a new strat....