#1
|-21-17------------17-21-17------------17--|
|--------19----19------------19----19------|
|-----------18------------------18---------|
|------------------------------------------|
|------------------------------------------|
|------------------------------------------|

+ how do you put this in tab form in a post? :S

where are the down-up strokes?

got any tips?
#2
you would tap the 21 then hammer the other ones up, downstroke the 19 and 17 after and tap the 21 again, letting off to the 17 and hammering up the 19 and 18 again. down stroke the 19 and 17 again.
Quote by Zach
I'm gonna make a poster of my pinky finger that says in big bold letters on the bottom 'USE IT'
Quote by Switch
I was not expecting him to have a ferret skilled in nuclear weaponry
#3
Downstroke the 21, upstroke the 17 and 19, then downstroke again on the 18, 19, up the 17, down the 21, up the 17, 19, down the 18, 19, 17.
Epiphone Riviera Jorma Kaukonen Deluxe
Orange Tiny Terror with a Mesa 2x12 Lone Star
Boss PH-3
Jekyll & Hyde Ultimate Overdrive
Dunlop Crybaby 535Q
Boss DD-20
Fender Deluxe Mexi-Jazz
#5
one suggestion:
|-21-17------------17-21-17------------17--|
|--------19----19------------19----19------|
|-----------18------------------18---------|
|------------------------------------------|
|------------------------------------------|
|------------------------------------------|
  d  p   u   d   d  d  h  p  u   u  d  d

d =downstroke
u =upstroke
h =hammer on
p =pull off

use tags to make the tab look right in your post.
#6
Quote by Calgone
Downstroke the 21, upstroke the 17 and 19, then downstroke again on the 18, 19, up the 17, down the 21, up the 17, 19, down the 18, 19, 17.

or that way is easier than mine.
Quote by Zach
I'm gonna make a poster of my pinky finger that says in big bold letters on the bottom 'USE IT'
Quote by Switch
I was not expecting him to have a ferret skilled in nuclear weaponry
#7
Quote by kyrreca
one suggestion:
|-21-17------------17-21-17------------17--|
|--------19----19------------19----19------|
|-----------18------------------18---------|
|------------------------------------------|
|------------------------------------------|
|------------------------------------------|
d p u d d d h p u u d d

d =downstroke
u =upstroke
h =hammer on
p =pull off

use tags to make the tab look right in your post.



thanks mate :]

it's quite hard :'[

im crap at sweeps :l
#8
it depends on the rest of the song
my teacher says that if you're doing alot of alternate picking and then do something like this you probrably should just keep alternate picking even though it's harder than directional picking

down (21), up (17) down (19), up (18), up (19), down (17), up (21), down (17), down (19)up (18), up (19), up(17)

that's directional picking because you pick in the direction of the nect string you're gonna hit
Gear:
Jackson SL-3 Soloist w/ licensed Floyd Rose
Peavey VK 100 Head
Earcandy Boa 2X12 Cab w/ 70 watt Speakers
Fender Frontman 15 Watt Practice Amp

I'M SELLING A HOHNER HR1000 GUITAR. PM ME FOR INFO.
#9
|-21-17------------17-21-17------------17--|
|--------19----19------------19----19------|
|-----------18------------------18---------|
|------------------------------------------|
|------------------------------------------|
|------------------------------------------|


I would add a pull-off and do it like this
   ^  V   V  V  ^   ^  V      V  V  ^  ^
|-21-17------------17-21p17------------17--|
|--------19----19------------19----19------|
|-----------18------------------18---------|
|------------------------------------------|
|------------------------------------------|
|------------------------------------------|
#10
Quote by Ht666
thanks mate :]

it's quite hard :'[

im crap at sweeps :l

Yeah, they're hard to get a grip on. Just practice with a metronome on a fairly slow tempo, and focus on being precise. If you start out fast and sloppy, you'll have a lot of trouble weeding out all kinds of different bad habits.

If you haven't already, check out some video lessons on YouTube (or somewhere else).
#12
Quote by led,rainsong
it depends on the rest of the song
my teacher says that if you're doing alot of alternate picking and then do something like this you probrably should just keep alternate picking even though it's harder than directional picking

down (21), up (17) down (19), up (18), up (19), down (17), up (21), down (17), down (19)up (18), up (19), up(17)

that's directional picking because you pick in the direction of the nect string you're gonna hit



You mean Economy picking?