#1
ok i dint know where to put this its just the tabs, but ill probly post me playing it later.


well i like the stairway to heaven tab... but it sounds even better(i think) backwards so... here u go backwards stair way to heaven


E-3-----3---------|----------0-----0|-2-----2-0-------|-----------------|
B-----0---1-----1-|------1p0-----1--|-----3-----------|-----------1-1-0-|
G---0---------0---|----2-------2----|---2-------0-----|-----------2-2-0-|
D-----------2-----|----------------3|-------0-----2---|-----------------|
A---------------3-|-2-0----0--------|---------------3-|-2-0-------0-0-2-|
E-------3---------|-----------------|-----------------|-----------------|

E-----0---------0-|-2----2-8-----8--|-7-----7---------|-----------------|
B---1-----1---1---|----3-------5----|-----5---5-------|-----------1-1-0-|
G-2---------2-----|--2-------5------|---5-------5-----|-----------2-2-0-|
D---------------3-|------4-------5--|-------6-----7---|-----------------|
A-----------------|-----------------|---------------0-|-7-8\--0---0-0-2-|
E-----------------|-----------------|-----------------|-----------------|

E-----0---------0-|-2-----2-8-----8--|-7-----7-5------|
B---1-----1---1---|-----3-------5----|-----5-----5-----|
G-2---------2-----|---2-------5------|---5---------5---|
D---------------3-|-------4-------5--|-------6-------7-|
A-----------------|------------------|-----------------|
E-----------------|------------------|-----------------|
#2

E-3-----3---------|----------0-----0|-2-----2-0-------|-----------------|
B-----0---1-----1-|------1p0-----1--|-----3-----------|-----------1-1-0-|
G---0---------0---|----2-------2----|---2-------0-----|-----------2-2-0-|
D-----------2-----|----------------3|-------0-----2---|-----------------|
A---------------3-|-2-0----0--------|---------------3-|-2-0-------0-0-2-|
E-------3---------|-----------------|-----------------|-----------------|

E-----0---------0-|-2----2-8-----8--|-7-----7---------|-----------------|
B---1-----1---1---|----3-------5----|-----5---5-------|-----------1-1-0-|
G-2---------2-----|--2-------5------|---5-------5-----|-----------2-2-0-|
D---------------3-|------4-------5--|-------6-----7---|-----------------|
A-----------------|-----------------|---------------0-|-7-8\--0---0-0-2-|
E-----------------|-----------------|-----------------|-----------------|

E-----0---------0-|-2-----2-8-----8--|-7-----7-5------|
B---1-----1---1---|-----3-------5----|-----5-----5-----|
G-2---------2-----|---2-------5------|---5---------5---|
D---------------3-|-------4-------5--|-------6-------7-|
A-----------------|------------------|-----------------|
E-----------------|------------------|-----------------|


Fixed.
#4
"Well here comes my sweet Satan
The one whose name is Satan
There was a shed were he made us suffer
Sad Satan"
Dunlop Straps™
The best sounding straps on the market


Quote by steven seagull
Justice is this, justice is that...justice is 9 minutes long and recorded in a cupboard full of fluffy pillows
#5
Quote by Missingno476
"Well here comes my sweet Satan
The one whose name is Satan
There was a shed were he made us suffer
Sad Satan"


youve got it a little off , its

"cheers to my sweet satan,
the one who's little path would make us sad , the power of the satan
He'll give you, he'll give you 666
There was a little toolshed where he made us suffer, sad satan"
#7
Quote by l1kel1ke
he'll give you 666? that sounds more like a porn film :S

hahaha, i just said it how it is, but you're right haha