#1
Just wondering what fingers you would use for these sweeps? I'm not experienced at it and it would be pretty much my first sweeping practice.

|-15-------------14s13-------------12-|----------------------------------|
|----14-------13-------12-------11----|----------------------------------|
|-------15----------------13----------|-------------12-14-15~------------|
|----------16----------------14-------|----------12----------------------|
|-------------------------------------|-10-12-13-------------------------|
|-------------------------------------|----------------------------------|

And also, I'm just wondering. In some songs I usually change the string a note is played on(for example replace 6th on 6th string by 1st fret on 5ft string. Is it actually good to do this or should I learn the way it's "meant to be"?
Quote by MH400
a girl on the interwebz?

You have 2 options.

1. Tits.
2. GTFO.

#3
Iz tat bed uv razorz, lulz, taht song iz the pwnzorz..
Yeah Dimebag is not the "Greatest Guitarist" of all time... Hendrix maybe... I must go get food to eat with my mouth

$250 for an amp? wow. is it worth it to invest that much in the amp?

#4
Play what feels right to you.

If it feels awkward, you're probably doing it wrong. If you play something and its the least awkward of the way you've tried to play, and you think you've exhausted all your options, then practice that until its not awkward anymore.

Sweep picking is just the most efficient way to pick certain groups of notes. There's no secret behind it. Play it the same you would play any other type of picking pattern, except do it in a sweeping motion.

Easier said than done, etc. Practice. Etc.
#5

  2  1  2  3   1  2 2  1  2  3  1  2    1  2  3  2  2  3  4 
|-15-------------14s13-------------12-|----------------------------------|
|----14-------13-------12-------11----|----------------------------------|
|-------15----------------13----------|-------------12-14-15~------------|
|----------16----------------14-------|----------12----------------------|
|-------------------------------------|-10-12-13-------------------------|
|-------------------------------------|----------------------------------|


That's how I'd play, but I'm a newbie at sweeping too.

Also, I'd say it doesn't matter how it's "ment" to be played. Play it like you want.
Quote by Lunchbox362
This thread if fail in almost every way imaniganable.
#6
3 2 3 4 1 1 1 3 2 3 4 1 2 1 2 3 1 2 3
|-15-------------14s13-------------12-|----------------------------------|
|----14-------13-------12-------11----|----------------------------------|
|-------15----------------13----------|-------------12-14-15~------------|
|----------16----------------14----- |----------12----------------------|
|-------------------------------------|-10-12-13-------------------------|
|-------------------------------------|----------------------------------|
#7
Yeah it's Bed of Razors. I do know what sweeps are, and I know about the motion and all, just never practiced them, I'll start now. I was just wondering the fingers you guys would use. Anyways thanks for the feedback.
Quote by MH400
a girl on the interwebz?

You have 2 options.

1. Tits.
2. GTFO.