#1
e|-----------------------x--3---3-----8--10-x-----------------------------|
B|----8--x--10b12----x--3---3-------------x---10b12--8------------------|
G|--9----x--------------x--4---4-------------------------------------------|
D|---------------------------------------------------------------------------|
A|----------------------------------------------------------------------------|
E|----------------------------------------------------------------------------|

e|--------------------10-8--x-----------3------------3--------------------|
B|------8-10b12-----------x-10-8----3------------3--------------------|
G|---9------------------------------------4h5p4------4--------------------|
D|---------------------------------------------------5-----------------------|
A|---------------------------------------------------------------------------|
E|---------------------------------------------------------------------------|

e|-9h11p9-9-9--x-12-9-11-9-12-14-12-11--------------------------|
B|------------------x--------------------------------------------------------|
G|------------------x--------------------------------------------------------|
D|---------------------------------------------------------------------------|
A|---------------------------------------------------------------------------|
E|---------------------------------------------------------------------------|

thats basically all of the frets i use in the song, i want to add harmonica, but i dont know what key it is in. im thinking A or maybe E... im not sure.... what scale am i useing?


i put it in code first and it was waaay sloppier. so all of the x's should be in a line and the 433 chord should be in a line. not that it really matters as we are talking about the notes here.

sorry for the sloppiness though.
Last edited by TonyRandall at Nov 11, 2007,
#2
Well, the first two lines there would fit into E minor nicely, and the third line, E or B major.
#3
ya, i was also thinking a minor and e minor, but i didnt want to put too many guesses up there making me look even more like a dumbass...
i was thinking G major also?
#4
Quote by TonyRandall
ya, i was also thinking a minor and e minor, but i didnt want to put too many guesses up there making me look even more like a dumbass...
i was thinking G major also?


G major and E minor are the same thing.