#1
Hey, ever since I heard "Cry No More" by L.A. Guns, I've always wanted to play it on my guitar. I have looked everywhere and still haven't found it's tab. If you could help me out, it would mean the world to me!
#2
I recently tabbed this and sent it in, but for mod reasons it ain't posted on the site. Here:
Cry No More
written by Tracii Guns
tab by JA

Where bar ends, move on to subsequent bar.
Otherwise, x2 Means "times two", aka "play twice"

A
e|-7-----7-----8--5-----5-----7--3-----3-----5-|
b|---0-----0--------0-----0--------0-----0-----|
g|-----0-----0--------0-----0--------0-----0---|
d|-5--------------4--------------2-------------|
a|---------------------------------------------|
E|---------------------------------------------|

B
e|-2---2---2---2---3---3---3---3---5---5---5---5---|
b|---3---3---3---3---5---5---5---5---7---7---7---7-|
g|-------------------------------------------------|
d|-0---------------0---------------0---------------|
a|-------------------------------------------------|
E|-------------------------------------------------|

C alternative
e|-7--5--7--8--7-5-| |----------------------|
b|-8--7--8--10-8-7-| |-12--10--12--13-12-10-|
g|-----------------| |-12--11--12--14-12-11-|
d|-----------------| |----------------------|
a|-----------------| |----------------------|
E|-----------------| |----------------------|

D
e|-10-----7-----10-----7-----7| |-8-----8-----8-7-----7-----7-|
b|------8-----8------8-----8--| |---0-----0-------0-----0-----|
g|----0-----0------0-----0----| |-----5-----5-------5-----5---|
d|----------------------------| |-7-------------7-------------|
a|----------------------------| |-----------------------------|
E|----------------------------| |-----------------------------|x2


e|-7-----7-----7-| |-7-----7-----7-6------6-----6-|
b|---0-----0-----| |---0-----0--------0-----0-----|
g|-----7-----7---| |-----6-----6--------6-----6---|
d|-5-------------| |-4-------------4--------------|
a|---------------| |------------------------------|
E|---------------|x2 |------------------------------|x2

Play through once, play through again with string accompaniment.
just play