#1
I am wondering what the proper way to play this intro is. Song is feeling this by blink 182. I know he capos at second fret and this is what it looks like he plays to me. Im going off of this video.
http://www.youtube.com/watch?v=2M3c1T73Yyk

E-----------------
B-----------------
G-11-99999-13-0
D-11-99999-13-0
A--9--77777-11-0
E----------0---------

Thats what it looks like to me but can someone help me because I dont know if its right.
#2
uh..

E---------------------------
B---------------------------
G-11-9-9-9-9----9--13-9
D---------------------------
A-9--7-7-7-7-7--7--11-7
E---------------0----------0
#3
they are octaves, drop D with cap on the second fret.
My Gear:

Fender 62 RI Stratocaster
Epiphone Les Paul Standard+
Fender Supersonic
Boss DD-3 Delay
Boss OS-2 OD/DS
Martin 000-28
Washburn D10s