#1
I need some E Harmonic Minor licks. Im tryign to writre a solo for a song and I need some ideas. I also want to have a little sweep picking involved. I only know the Major and Minor shapes.

so cna u guys give me some help with licks,sweeps in E harmonic Minor
#2
not off hand can i but
check out a bunch of yngwie i know he uses it a lot
Quote by metul kult
You know when Attack Attack is ripping off your music, you're onto something


twitter: @victorstaygold
#4
Well, the E Harmonic Minor scale goes:

e|--------------------------------------
B|----------------------------------4-5
G|--------------------------2-4-5-----
D|---------------1-2-4-5-------------
A|--------0-2-3-----------------------
E|0-2-3-------------------------------

(I suck at writing, tab, btw.)

Now that you know the E Harmonic Scale, experiment.
Quote by yawn
My work here is done.

Destroying the lives of innocent people, one post at a time.


Member of the 'Muse > any other band' club
#6
Quote by Shifty155
Well, the E Harmonic Minor scale goes:

e|--------------------------------------
B|----------------------------------4-5
G|--------------------------2-4-5-----
D|---------------1-2-4-5-------------
A|--------0-2-3-----------------------
E|0-2-3-------------------------------

(I suck at writing, tab, btw.)

Now that you know the E Harmonic Scale, experiment.



I know the scale
#7
Quote by KurtCobain9898
I only know the Major and Minor shapes.


O rly?
Quote by yawn
My work here is done.

Destroying the lives of innocent people, one post at a time.


Member of the 'Muse > any other band' club
Last edited by Shifty155 at Nov 13, 2007,
#8
Quote by Shifty155
O rly?



Major & Minor sweepicking shapes.

e------------------8----------------------------7h12p7-----
B--------------10----------------------------8---------------
G------------9-----------------------------9-----------------
D--------10-----------------------------9-------------------
A----12--------------------------7h10----------------------
E-------------------------------------------------------------
#9
Quote by KurtCobain9898
Major & Minor sweepicking shapes.

e------------------8----------------------------7h12p7-----
B--------------10----------------------------8---------------
G------------9-----------------------------9-----------------
D--------10-----------------------------9-------------------
A----12--------------------------7h10----------------------
E-------------------------------------------------------------



so you just answered you own questions?