#1
Hey guys
just wondering if anyone could possibly tab this into guitar pro for me? it is the solo to david bowie-china girl. i don not need any other parts of the song to be tabbed, just the solo if possible

cheers


e|---------------------------------------------------------------------------|
B|---------------------------------------------------------------------------|
G|---------------------------------------------------------------------------|
D|------------------------7^5-----7/8----5---7-------------------------------|
A|--------5--7-------5-----------------------------7----5--------------------|
E|----0----------0--------------------------------------------5--------------|

e|---------------------------------------------------------------------------|
B|---------------------------------------------------------------------------|
G|--------------------------------------------------------------------7------|
D|------5---7/9------7----------------------------------------------------9--|
A|--7----------------------8/7^5----7----5(bend 1/2)---------7/9-------------|
E|------------------------------------------------------7--------------------|

e|---------------------------------------------------------------------------|
B|---------------------------------------------------------------------------|
G|---------------------------------------------------------------------------|
D|-8---7---8/7----5----------7(bend 1)-----5---7---7---5---------------------|
A|---------------------7-------------------------------------7^5-------------|
E|---------------------------------------------------------------------------|

e|---------------------------------------------------------------------------|
B|---------------------------------------------------------------------------|
G|-------------------------------12(bend 1/4)-------14(bend 1)----12---------|
D|------------12---14-14-14-14-----------------14----------------------14----|
A|---12^14-------------------------------------------------------------------|
E|---------------------------------------------------------------------------|

e|---------------------------------------------------------------------------|
B|--------------15---15-15-15---15-15-15-15-15-15-15-15-----15/17----17-17-17|
G|--------------16---16-16-16---16-16-16-16-16-16-16-16----------------------|
D|--14--12-------------------------------------------------------------------|
A|---------------------------------------------------------------------------|
E|---------------------------------------------------------------------------|

e|-----------------------------15-----12-------------------------------------|
B|--17-17-17-17-17-17-17-17-----------------15-----12------------------------|
G|------------------------------------------------------14(bend 1)----14^12--|
D|---------------------------------------------------------------------------|
A|---------------------------------------------------------------------------|
E|---------------------------------------------------------------------------|