#1
Has anyone heard the song "Take a Picture" by Filter? I've learned the chords but i cant get the right strumming pattern. Can someone help? Please.
#2
d - downstrokes
u - upstrokes


  d    u d u d    u d   d u d     d    u d u d    u d   d   u
|-0----0-0-0-0----0-0---0-0-0---|-0----0-0-0-0----0-0---0-------|
|-0----0-0-0-2----2-2---2-2-2---|-0----0-0-0-3----3-3---2---0---|
|-2----2-2-2-2----2-2---2-2-2---|-2----2-2-2-2----2-2---2---0---|
|-2----2-2-2-2----2-2---2-2-2---|-2----2-2-2-2----2-2---2---0---|
|-0----0-0-0-0----0-0---0-0-0---|-0----0-0-0-0----0-0---0-------|
|-------------------------------|-------------------------------|

  d    d    d    u d   d   d u   d    d    d    u d   d   d u   
|-3----3----2----2-2---2---2-2-|-3----3----2----2-2---2---2-2-|
|-3----3----3----3-3---3---3-3-|-3----3----3----3-3---3---3-3-|
|-2----2----2----2-2---2---2-2-|-2----2----2----2-2---2---2-2-|
|-0----0----0----0-0---0---0-0-|-0----0----0----0-0---0---0-0-|
|------------------------------|------------------------------|
|------------------------------|------------------------------|

  d     d    u d u d   d   d        d    d     u  d  u  d    d  u  d  u
|-------------------------------|----------------------------------------|
|-------------------------------|----------------------------------------|
|-9-----9----9-9-9-9---9---14---|---14---14----14-14-14-14---14-14-14-14-|
|-9-----9----9-9-9-9---9---14---|---14---14----14-14-14-14---14-14-14-14-|
|-7-----7----7-7-7-7---7---12---|---12---12----12-12-12-12---12-12-12-12-|
|-7-----7----7-7-7-7---7---12---|---12---12----12-12-12-12---12-12-12-12-|


  d     d    u  d  u  d    d    d       d   d    u d u d   d u d u
|-----------------------------------|------------------------------|
|-----------------------------------|------------------------------|
|-11----11---11-11-11-11---11---7---|---7---7----7-7-7-7---7-7-7-7-|
|-11----11---11-11-11-11---11---7---|---7---7----7-7-7-7---7-7-7-7-|
|-9-----9----9--9--9--9----9----5---|---5---5----5-5-5-5---5-5-5-5-|
|-9-----9----9--9--9--9----9----5---|---5---5----5-5-5-5---5-5-5-5-|
"That was it, a nick. Now happily paid for. [...] It was decided that it was so far away in time and influence that...well, you only get caught when you're successful. That's the game". Robert Plant
Last edited by browar at Nov 15, 2007,