#1
Wasn't sure whether to put this in the Acoustic Guitar forum or here...but I need help finding out what song this is. All I know is that I found it www.classtab.org a long time ago and I play it all the time. I love the song, but I completely forgot who wrote it. This is the only way I can explain it (first riff of two):

e||--0------3------3-------3------2------2--------
B||----0------0------0-------1------1------1------
G||------0------0------0-------2------2------2----
D||-----------------------------------------------
A||------------------------0----------------------
E||--0--------------------------------------------


||--5------3------2-------7------7------7--------
||----4------4------4-------0------0------0------
||------2------2------2-------0------0------0----
||-----------------------------------------------
||--2--------------------------------------------
||------------------------0------0------0--------


||--0------3------3-------3------2------2--------
||----0------0------0-------1------1------1------
||------0------0------0-------2------2------2----
||-----------------------------------------------
||------------------------0----------------------
||--0--------------------------------------------

NH
||--5------3------2-------0---------<12>---------
||----4------4------4---------------<12>---------
||------2------2------2-------------<12>---------
||-----------------------------------------------
||--2--------------------------------------------
||------------------------0----------------------


There's another riff that's similar, I just can't be bothered to tab it right now...
Mother Earth is pregnant for the third time
For y'all have knocked her up.
I have tasted the maggots in the mind of the universe
I was not offended
For I knew I had to rise above it all
Or drown in my own shit.
#2
It sounds to me kind of like the theme from the godfather or some other mafia movie.