#1
my older brother wants to learn how to play electric guitar, but he doesnt know what kind to get. what do you think he should get?
Quote by SeveralSpecies
How the f*ck are you gonna get a cat to bark?


---------------------------5------8-----7-
----------------5-------------------------
------------------1-3-3-------/6----/5----
-1/3--1-1h3-------------------------------


Matt Freeman>You
#2
Depends on what kind of music he wants to play
^^^^True words of wisdom spoken from a genius

Gear:
Stagg Flying V
Roland Microcube
Some **** acoustic
And some random Fender straP. With a P, not T
#3
he wants to play metal, punk, alternative, and some emo. like bullet for my valentine, korn, marilyn manson, my chemical romance, etc.
Quote by SeveralSpecies
How the f*ck are you gonna get a cat to bark?


---------------------------5------8-----7-
----------------5-------------------------
------------------1-3-3-------/6----/5----
-1/3--1-1h3-------------------------------


Matt Freeman>You
#4
Price range?
^^^^True words of wisdom spoken from a genius

Gear:
Stagg Flying V
Roland Microcube
Some **** acoustic
And some random Fender straP. With a P, not T
#5
about 200-400. and not a piece of crap kind of guitar, cuz my first bass was a piece of crap and i regreted getting it.
Quote by SeveralSpecies
How the f*ck are you gonna get a cat to bark?


---------------------------5------8-----7-
----------------5-------------------------
------------------1-3-3-------/6----/5----
-1/3--1-1h3-------------------------------


Matt Freeman>You
#7
How about a Jackson Warrior one in the X series. Theyre pretty good for metal
^^^^True words of wisdom spoken from a genius

Gear:
Stagg Flying V
Roland Microcube
Some **** acoustic
And some random Fender straP. With a P, not T
#8
Quote by TheBassMan3
he wants to play metal, punk, alternative, and some emo. like bullet for my valentine, korn, marilyn manson, my chemical romance, etc.


Tell him to get a bullet because none of those bands are metal/punk and single coils would do just fine
#9
he just freakin changed his mind. now im teaching him bass
Quote by SeveralSpecies
How the f*ck are you gonna get a cat to bark?


---------------------------5------8-----7-
----------------5-------------------------
------------------1-3-3-------/6----/5----
-1/3--1-1h3-------------------------------


Matt Freeman>You