#1
I Have Been Playing Guitar For About 5 Years And Ive Learnt A Few Chunky Guitar Riffs But Ive Got Bored With Them So Ive Posted This Thread So All You Awesome People Can Help A Guy In Need By Tabbing Me A Awesome Chunky Guitar Riff :d Plz
#3
Why Do You Ask Questions Like This?
"Satan isn't inside a guitar pick. He's in here. In our hearts. He's what makes us not want to go to work, or excercise or tell the truth." -
Quote by Jack Off Jill
I wish I was gay.

Quote by cashewchaching
Even though he's an ugly woman, my favorite is john mayer.
#4
Quote by SilenceIsGolden
Too Many Capitol Letters.


You Meant Capital.
If you can bear to hear the truth you've spoken
Twisted by knaves to make a trap for fools,
Or watch the things you gave your life to, broken,
And stoop and build 'em up with worn-out tools
#6
dude wrong forum. and Stop Typing Like This. it ain't cool.
Ulquiorra Schiffer of THE BLEACH CLUB!

The Official UG Hate Crew member!

Love me because i'm an azn. hell yeah.
#9
[tab]
e-0----------------244----------232432-----------------325325-----23523------
B------------0-----------98768584834832---------5235-------------52352----------
G------53543-----------0--0--------2434234-----------235235---------------
D----------------------3432423553252353-------------523
A-------------------------ewrwerw------------------------3523
E-------------3-3----------------32523523523-----1-1----325235233-----------
[/tab]
#11
Quote by Deadmen
[tab]
e-0----------------244----------232432-----------------325325-----23523------
B------------0-----------98768584834832---------5235-------------52352----------
G------53543-----------0--0--------2434234-----------235235---------------
D----------------------3432423553252353-------------523
A-------------------------ewrwerw------------------------3523
E-------------3-3----------------32523523523-----1-1----325235233-----------
[/tab]


am i the only one who actually tried to play that?
Last edited by cubs at Nov 18, 2007,