#1
Hey guys, I have tabbed out (by ear, my first ) that Funtwo - Carol Rock video

http://youtube.com/watch?v=86LQCv3X_vo

My tab isn't perfect and I can't quite tab the solo, but if anyone would volenteer to help me tweak my tab a little you are a LEGEND,
thanks,
Foz
ᶌῖᶌα ɭα ɌεᶌσɭƲʈιʘϰ
Last edited by Vauxite at Nov 18, 2007,
#2
are u richold on youtube? cause your intro is a bit off 1 sec i'll tab it for u.
#4
.= Palm mute
p= pull off
h= hammer on


|--------------------------------
|--------------------------------
|------------------------------7-
|------7---5---7---5---7---5h7-7-
|--0-0---0---0---0---0---0-------
|--------------------------------
   . .   .   .   .   .   .


|--------------------------------
|--------------------------------
|---------------------7p5r0------
|---7---5---7---5---7-------7----
|-0---0---0---0---0--------------
|--------------------------------
  .   .   .   .   .             x2

|--------------------------------
|--------------------------------
|--------------------------------
|---7---5---7--------------------
|-0---0---0---0--3p0-3p0---0-----
|------------------------3-------
  .   .   .   .   
#5
There you go m8 btw im T4nked on youtube.. that is the intro riff up untill 0:23 seconds
#6
oh thanks
Do you know which sclaes he uses in his 2 runs?
ᶌῖᶌα ɭα ɌεᶌσɭƲʈιʘϰ