#1
So. I'm new and have a long way to go. I'm wondering if someone would be kind enough to answer this question. The tab in question is pasted below.

My question is:

Do I play these stings in the following order? G D G B orrrrrrrrr G D B G? I am confused because B falls before G in terms of placement on the tab. I'm wondering if I need to pick that one first. Or not.

e|---------------------------------|
B|-----1-------1-------1-------1---|
G|-------0-------0-------0-------0-|
D|---0-------0-------0-------0-----|
G|-0-------0-------0-------0-------|
E|---------------------------------|
#3

e|---------------------------------|
B|-----1-------1-------1-------1---|
G|-------0-------0-------0-------0-|
D|---0-------0-------0-------0-----|
G|-0-------0-------0-------0-------|
E|---------------------------------|

G D B G.
#4
e|---------------------------------|
B|-----1-------1-------1-------1---|
G|-------0-------0-------0-------0-|
D|---0-------0-------0-------0-----|
G|-0-------0-------0-------0-------|
E|---------------------------------|

GDBG GDBG GDBG GDBG its like readin a book go from left to right
Quote by Tatersalad1080
do what jimbleton said


^ i did something good!!

Quote by tjhome28
This.


^ to something i said!

☭UG Socialist Party ☭
#5
Uhh.....shoudn't it be ADBG? Why did you put 2 g's there?

From top to bottom strings go EADGBE - in standard tune...

Just sayin, something doesn't look right...... It SHOULD look like this:

E|--------
B|--------
G|-------
D|------
A|------
E|-----
Last edited by DiMeTiMe at Nov 24, 2007,
#6
^ Unless he's decided to detune the string, to make it easier to fret certain chords ... ?

Or have you not heard of alternative tunings?