#1
I started tabbing a song and I think I've got the notes right:



Although, I can't find a way to tab it so it is played efficiently, excluding the first 3 notes which can be played easily with either of the positions x79987 or xx2453.

(The part can be heard immediately at the opening of the song here)

Any help would be appreciated, and I apologize for my poor english...
#2
Show the tab...and by the way I can hear a lot of slides so I guess that the fingering is a bit odd.

P.S beatzlaha.
#3
Here are the matching tabs . They were arranged automatically (by GP5) in an inefficient way, with the exception of of the Em chord part which I arranged myself:

     Em           Bm                Bm           Am               
E|--------3--------------0------|--------0--------------0----0-|
B|--------5----5----------------|------------------------------|
G|-----4-----------------4------|--------4--------------2------|
D|--2--------2--------4-----0-4-|-----0-------2------2---------|
A|---------------2h-5-----------|--2--------2---2s-3-------3---|
E|------------------------------|------------------------------|

Here's a midi export from GP5 as a reference: rapidshare link
#4
Should I let this thread sink down?
It's the first time I encounter such difficulty with tab, and it's only two bars long.
#5
I don't really understand what the problem is. That shouldn't be too difficult to play.
#6
Quote by kyrreca
I don't really understand what the problem is. That shouldn't be too difficult to play.

I guess you're right.
I gave it another shot and I think I got it arranged nicely:
    Em           Bm                Bm           Am               
E|--------3--------------0------|--------0--------------0----0-|
B|--------5----5---------0------|--------0---------------------|
G|-----4------------------------|-----------------------2------|
D|--2--------2--------4-------4-|-----0-------2------2---------|
A|---------------2h-5-------5---|--2--------2---2s-3-------3---|
E|------------------------------|------------------------------|

It sounds pretty good too.
Thanks anyway