#1
I'm not sure if people will understand this and thats why I'm not sure if I should post this. I wrote this up earlier this morning. I will probably add some ways to use these scales in your playing and how to create other patterns (harmonic minor for example) by yourself. This is all I have so far. Thanks for checking it out.

4 note per string just means that as you ascend or descend through a scale you use 4 notes on each string.

I'll be showing you the repeating patterns for these because it means you need to memorise less.

C Phrygian       
||-----------------------------------------------------------17-19-21-22-----
||-----------------------------------------------15-17-19-20-----------------
||-----------------------------------12-14-16-17-----------------------------
||-----------------------10-12-14-16-----------------------------------------
||------------9-10-12-14-----------------------------------------------------
||--7-8-10-12----------------------------------------------------------------

This is an example of a 4 note per string scale and it shows all the unique patterns within 4nps scales.

You need to play this and take note of the shapes that occur on each string, by just reading this you may not understand fully.

There are only 4 unique shapes in 4 note per string patterns on a single string and they are:

(x)  (x)  (x)(x)   = C
(x)  (x)(x)  (x)   = X
(x)(x)  (x)  (x)   = O
(x)  (x)  (x)  (x) = Y

The way these stack up diagonally on each other they go in this order:

C C X X O O Y (Loop) C C X X O O Y (etc)

Major		C, C, X, X, O, O

Dorian		X, X, O, O, Y, C

Phrygian	O, O, Y, C, C, X

Lydian		Y, C, C, X, X, O

Mixolydian	C, X, X, O, O, Y

Minor		X, O, O, Y, C, C

Locrian		O, Y, C, C, X, X


Dorian Pattern Tab (X, X, O, O, Y, C)
||---------------x-x-xx---------
||-------------x-x-x-x----------
||-----------xx-x-x-------------
||--------xx-x-x----------------
||-----x-xx-x-------------------
||--x-xx-x----------------------

Dorian Pattern Picture
                          (x)  (x)  (x)(x)
                     (x)  (x)  (x)  (x)
               (x)(x)  (x)  (x)
          (x)(x)  (x)  (x)
     (x)  (x)(x)  (x)
(x)  (x)(x)  (x)


Eg. A Major (C, C, X, X, O, O)

      C        C         X           X           O            O
							   x-xx-x        
||---------------------------------------------x-x-xx-----16-17-19-21
||---------------------------------x-xx-x-----14-15-17-19------------
||---------------------x-xx-x-----11-13-14-16------------------------
||-----------x-x-xx----9-11-12-14------------------------------------
||--x-x-xx---7-9-11-12-----------------------------------------------
||--5-7-9-10---------------------------------------------------------