#1
http://www.youtube.com/watch?v=-C3UtyK8IAQ its the colony of birchmen solo if you guys are wondering and it starts at 3:25. But the first part of the solo it sounds like his guitar is saying "rrrruuhhh" Is it some odd effect or is it all in his fingers?

Edit: try this link if the first one doesn't work http://www.youtube.com/watch?v=VQo9bwQ2rQc

here it is if you wanna try it out
Tremelo pick this part
|---------------------------------------------------------------------------|
|---------------------------------------------------------------------------|
|---------------------------------------------------------------------------|
|-----------------------------/9-7p5tr~~~~/9~~~~----------------------------|
|-5h7tr~~~~~~~~~~~~~~/14~~~~\---------------------5h7tr~~~~~/9~~~~~~/14-----|
|---------------------------------------------------------------------------|

|------------------------------------------------12--12--12------------|
|-------------------------12--12--12--12--12-12----15--15--15b(17)~~~~-|
|---------12--12--12--12----------------14-----14----------------------|
|-12--12------------14--14--14--14--14---------------------------------|
|---14--14--14--14-----------------------------------------------------|
|----------------------------------------------------------------------|
Ibanez RGT42FX
Vox AD30VT-XL

Quote by Attack
No. In Soviet Russia, Hell goes to you,
Last edited by ken112291 at Dec 3, 2007,
#4
Whoo, kickass band. I just picked up Blood Mountain and I love all their songs. Also, I do believe that its just some trills+distortion and maybe feedback(?)