#2
Keyboard arranged for guitar
eb|-17----17-19----17-20----17-22----17-20----19----|
Bb|----17-------17-------17-------17-------17----17-|
Gb|-------------------------------------------------|
Db|-------------------------------------------------|
Ab|-------------------------------------------------|
Eb|-------------------------------------------------|

eb|-17----17-19----17-20----17-22----17-20----19----|
Bb|----18-------18-------18-------18-------18----18-|
Gb|-------------------------------------------------|
Db|-------------------------------------------------|
Ab|-------------------------------------------------|
Eb|-------------------------------------------------|