#1
Found this in one of my guitar books.

Play it in standard tuning fairly fast. Sounds awesome...


------0----------------------0-------------------------------------

---------------------------------------------------------------------

---------------------------------------------2/4/2------2p0------

--------------------2^-----------------------------------------------

---------------------------------------------------------------------

-0--------0---3--------0-------------------------------------------


Play that twice.

Any other cool little riffs you can think off ?
#3
PM the whole top string
---0-0---0-0---0-0----0-0--
-0-----0----0-------0------0-
-9-----9----10-----10-----9-
--------------------------------
--------------------------------
--------------------------------


heres another u can add too that rift i think it sounds good

pm the whole second string

play this 1 fast :P
------------------------
-00--00--00--00----
----9----10--12--10-
------------------------
------------------------
------------------------
Last edited by civil at Dec 6, 2007,