#1
Hey guys, this is my first post on the UG forums. =]. I've been looking everywhere for the chords for the Muse Hysteria intro. Most of the tabs/chords I've found have been either for the chorus or the bassline. Basically I'm looking for the chords that Matt plays either live or on the studio album in the intro. Help would be MUCH appreciated,

MicroCut
#2
Hmmm, In the intro he plays basically wankage, but its tremolopicking starting from around the 4th or 5th fret on the low E string.

And then the main riff:
E||-------------------------------------------|-------------------------------------------|
B||---------------------------x-12r---10~-|---------------------------x-12r---10~-|
G||--14--14-14-14--14-14--x-----------|--13--13-13-13--13-13--x-----------|
D||--x---x--x--x---x--x---x----------------|--x---x--x--x---x--x---x----------------|
A||--12--12-12-12--12-12---------------|--11--11-11-11--11-11---------------|
E||-------------------------------------------|-------------------------------------------|

Edit: DAMN LINES! XD
PRS CE 24 Amber MT with Bare Knuckle Nailbombs
Zachary Vex Fuzz Factory and Wah Probe
Digitech Whammy IV
Krank Distortus Maximus
Marshall MG 100HDFX
#3
use code^

E||-------------------------------------------|-------------------------------------------|
B||-----------------------x-12r---10~-|---------------------------x-12r---10~-|
G||--14--14-14-14--14-14--x-----------|--13--13-13-13--13-13--x-----------|
D||---x---x--x--x---x--x---x---------------|--x---x--x--x---x--x---x----------------|
A||--12--12-12-12--12-12---------------|--11--11-11-11--11-11---------------|
E||-------------------------------------------|-------------------------------------------|


that^ would be
this - without the spaces


E||-------------------------------------------|-------------------------------------------|
B||---------------------------x-12r---10~-|---------------------------x-12r---10~-|
G||--14--14-14-14--14-14--x-----------|--13--13-13-13--13-13--x-----------|
D||--x---x--x--x---x--x---x----------------|--x---x--x--x---x--x---x----------------|
A||--12--12-12-12--12-12---------------|--11--11-11-11--11-11---------------|
E||-------------------------------------------|-------------------------------------------|


edit: the lines are wrong anyway
but it works for 99.9% of tabs
Last edited by Guitar-God-Elf at Jan 5, 2008,
#4
an open hammer-on to the 6th fret on low E followed by a slow pickslide as far as the neck pickup and then what they said.
1 2

Little solace comes
to those who grieve
as thoughts keep drifting
as walls keep shifting
and this great blue world of ours
seems a House of Leaves

My Rig
Quote by Will Swanson
HeavyReverb = Hero of The Pit 2010.
Quote by I-Shot-Jr
You sir are my absolute hero.