#1
Hey,

I've got a question once again about how you would play some riffs or melodies.

So, how would you play this one (let's say 120 bpm):

----------------------------------------------
------------12--14------------12--------------
-------------------------------------------------
--14-------------------14---------------14-------
---------------------------------------------------
----------------------------------------------------

And this kind of bend with the two at the same time:

--------10^b---------
--------13-------------
------------------------
------------------------
------------------------
------------------------

Thanks in advance if you think you know a proper way!
Quote by Slicendice


stop using UG as a search engine.

I guarantee that google will be 10x more helpfull and loving.
#2
For the first one, just practice..


for that second, I've never seen it where you bend the bottom string and not the top one. That must be wrong. It's also impossible.
Quote by yawn
My work here is done.

Destroying the lives of innocent people, one post at a time.


Member of the 'Muse > any other band' club
#3
On the first one, I would fret the B with my index finger, the E with my middle finger, and the Db with my ring finger.

On the second one, are you sure you aren't meant to bend the 13?
#4
first one:
ring finger on the d string 14
first finger on the b 12 and pinky on the b 14

second one:
it's impossible to bend the tenth fret
maybe the b's in the wrong place?
#6
Nevermind about the bending thing, your guys are all right. I marked the wrong note with the bend.
Quote by Slicendice


stop using UG as a search engine.

I guarantee that google will be 10x more helpfull and loving.