#1
I need help on part of the Metallica solo. I have it all down up until the three 22 bends. The part thats hard is:

--------17p15--------------------------15h17p15---------------------------
------------------17--15--17---19---------------------17-15-17-19--------
----------------------------------------------------------------------------------
----------------------------------------------------------------------------------
----------------------------------------------------------------------------------
----------------------------------------------------------------------------------

I just cant get it to sound right, either i cant play it fast enough or what, it just sounds like crap.

Please help,
Alex
#3
you can edit your posts you know.

just play it slow with a metronome.
spend about an hour a day on it and you should have it in a week.
#4
Well, it is fairly fast so that could be your problem.
Do you use a BR-600?
If so, click here to join the group thats made for you!
#5
1st finger always on 15(e)
you could turn the 19(b) to a 14(e)

that and metronome boyo
Quote by Td_Nights
*Points to Above Poster*

Best. Username. Ever.

Quote by _-Joey-_
I wish I was gay...


PSN- td_rules Steam- tdrules
#6
It's also easier and sounds better IMO if you use legato- I'm not sure how Kirk Hammett plays it but it sounds fine. I play it like this:

E 15h17p15---------------------15h17p15
B --------------17p15h17h19---------------17p15h17h19

That works well and isn't hard to do.
#8
It's a device you can pick up at any music store that helps you keep time. You can adjust it to different speeds and rhythms and it will keep a steady beat to help you out.
#9
Ok i do not understand how to use a metronome i cant seem to stay in pace and i cant seem to find how to hit notes in contrast with the beeps.

and how do u guys hoo kno the solo get your fingers that fast?????
#10
Ok people....i just cant seem to get it and I cant use a metronome worth ****!!!!!!!
What to do????