#2
lol a song a bout the N17 lol great to be irish. Here ya go

e|------3-----5-----6-----7------8--8-8------------------|
B|---0----0-----0-----0------0------9-9------3--5---5--|
G|-------------------------------------------------------5--|
D|-------------------------------------------------------5--|
A|-----------------------------------------------------------|
E|-----------------------------------------------------------|


e|-----3--5----8-8-----------------------------------------|
B|---0----------9-9------3--5---5-------------------------|
G|---------------------------------5-------------------------|
D|---------------------------------5-------------------------|
A|------------------------------------------------------------|
E|-----------------------------------------------------------|

Chords are:

G - C (verse)
G - C - D (chorus)

happy playing