#1
hey has anyone that learned this song still got the tabs for the solo?.....i really need the part that starts on the 23rd fret and then descends .......anyone??
#2
Oh yeah!
  H        Q     T   S. S  S  
-----------------------20-20-|
----------------12S-23-------|
-----------------------------|
-----------------------------|
-----------------------------|
-----------------------------|


   S  S  S  S  S  S  S  S  S  S  S  S  S  S  
--23-20-18-22-19-19-21-21-17-15-19-16-14-14-1
---------------------------------------------
---------------------------------------------
---------------------------------------------
---------------------------------------------
---------------------------------------------


   S  S  S  S  S    S  S   S   S  S  S S  S  
--16-12-11-14-12S-(11)-9S-(7)-10p-7----7-10p-
------------------------------------10-------
---------------------------------------------
---------------------------------------------
---------------------------------------------
---------------------------------------------


                 P.M.                 
   S  S E  E  E  E    E  E     S   S  
-------------------------------------|
--10p-7----------7-------------------|
--------9--7--9-------9--9br--(9)p-7-|
-------------------------------------|
-------------------------------------|
-------------------------------------|


           Look Inside Bend              
  E  E  E  E                Q     E  E   
----------------------------------------|
----------------------------------------|
--9--7-----7pb--------------L~----------|
--------9-------------------------------|
----------------------------------------|
----------------------------------5--5--|


  E  E  T  S. E  S  S E  S  S E   
---------------------------------|
---------------------------------|
---------------------------------|
--------------7--9p-7----7h-9-9--|
-----5--5S-9----------9----------|
--7------------------------------|


  E  E  E     S   S E  E    S S E   
-----------------------------------|
-----------------------------------|
--7--9--9br--(9)p-7-9--7br--L-L----|
--------------------------------9--|
-----------------------------------|
-----------------------------------|


  E  E  E   E   S  S E  E  E   
------------------------------|
------------7--10p-7----------|
--7--9--9b-----------9--7-----|
---------------------------9--|
------------------------------|
------------------------------|


                      Bend&Slide             
          |----3---|                         
  E  E    E   E    E  S.          S.  T  T  T
---------------------------------------------
---------------------------------------------
--7--9br--L--(9)p--7--9b---------(9)S-L-(0)-9
---------------------------------------------
---------------------------------------------
---------------------------------------------


   E    E   S   S  S  S  E    E   S   S  S  S
-------12--------------------12--------------
--15b------15p-12----12-15b------15p-12-12-15
------------------14-------------------------
---------------------------------------------
---------------------------------------------
---------------------------------------------


   E    E   S   S  E   E    E   E   E   
-------12------------------12------12--|
--15b------15p-12-15--15b------15------|
---------------------------------------|
---------------------------------------|
---------------------------------------|
---------------------------------------|


   |----3---|   |---3---|   |----3---|   |---
   E    E   E   E   E   E   E    E   E   E   
--15p--12------------------------------------
-----------15--12------12--15p--12-----------
-------------------14---------------14--12---
--------------------------------------------1
---------------------------------------------
---------------------------------------------


   |----3---|   |---3---|                  
   E    E   E   E   E   E   Q      E   E   
------------------------------------------|
------------------------------------------|
--14p--12---------------------------------|
-----------14--12-------------------------|
-------------------14--12-------------12--|
---------------------------15~----15------|


   |---3---|   |---3---|   |---3---|   |---3-
   E   E   E   E   E   E   E   E   E   E   E 
---------------------------------------------
---------------------------------------------
--------------------------------------12-----
--------------12------12--14--12--14------14-
--14--12--14------14-------------------------
---------------------------------------------


   |---3---|   |---3---|   |---3---|   |---3-
   E   E   E   E   E   E   E   E   E   E   E 
--------------------------------------12-----
--------------12------12--15--12--15------15-
--14--12--14------14-------------------------
---------------------------------------------
---------------------------------------------
---------------------------------------------


                                            S
   |----3---|   |-----3----|   |----3---|    
   E    E   E   E     E    E   E    E   E   E
--15p--12------------------------------------
-----------15--12S--(11)--12--15p--12--------
---------------------------------------14--12
---------------------------------------------
---------------------------------------------
---------------------------------------------


  Pick slide                                 
  T          T  T  T  T  T  T  T Q    H      
---------------------------------------------
---------------------------------------------
--9S---------8S-7S-6S-5S-4S-3S-2-------------
---------------------------------------------
---------------------------------------------
---------------------------------------------

Quote by zappp
emad I'm gonna ban you, seriously.
#3
are you sure thats right...thats the tab i have....when u play that solo does it sound correct?????