#1
My drummer (shame on him) is a bit of an attention ***** and doesn't like the normal band format. He doesn't like it even more now i have headroom over him with my new amp, and has expressed his dislike of Pink floyd and

Anyway, he would like to play the Title song live. I have no problems with this just i can't work out the solo.

The Chords and the main riff are quite frankly, easy, however there are two scortching solos which i simly can't work out in this version.

The Ventures - Wipe Out (Youtube)

The solos are at:
  • 1:16 -> 1:33
  • 2:09 -> 2:26
  • 3:01 -> 3:19 (both guitar parts would be handy)


I've used the search function but to no avail. All thos promising to be a solo tab are actually just the riff tabs.

Regards,
Madsalty
'05 Fender Speed Shop So-Cal Stratocaster
'95 Squier Standard Strat

OLP MM1
Washburn X200v Pro

Tanglewood TW145-SC
Yamaha C40

Orange Dark Terror + PPC212
Jet City JCA20H + JCA24S
#2
Sounds mostly pentatonic to me, you could just improvise one of your own.
Fender Classic Player 60s Strat
Washburn HB35
PRS Santana SE
Yamaha Pacifica 112MX
Vox AD30VT
Fender Champion 600
Dunlop wah
Danelectro Cool Cat fuzz
#3
This is kinda a weird coincidence, I decided to youtube Wipe Out the other day even though I've heard it a bunch of times, and this was the first version that came up and really blew me away. I was interested in learning it, but was too lazy to find an mp3 version of the file to tab it from.

So, I will tab you this solo if you get me an mp3 of the song.
#4
Quote by piesore
This is kinda a weird coincidence, I decided to youtube Wipe Out the other day even though I've heard it a bunch of times, and this was the first version that came up and really blew me away. I was interested in learning it, but was too lazy to find an mp3 version of the file to tab it from.

So, I will tab you this solo if you get me an mp3 of the song.


I thought it was pretty impressive too, however i'm unsure about the legalisties of sharing MP3's.

However if it was to point you at site for downloading youtube videos:

Click Here

And then sent you a hint that if you type audio cutter into google so you get it in MP3 format, would that be illegal?
'05 Fender Speed Shop So-Cal Stratocaster
'95 Squier Standard Strat

OLP MM1
Washburn X200v Pro

Tanglewood TW145-SC
Yamaha C40

Orange Dark Terror + PPC212
Jet City JCA20H + JCA24S
#5
So, I was able to d/l it and convert it to a .avi file, but I can't convert that to an mp3 for some reason. So, if you have something that would be able to convert it to mp3, that would be great. I tried audio cutter, but it only extracts a few seconds w/o registering.
#6
Quote by piesore
So, I was able to d/l it and convert it to a .avi file, but I can't convert that to an mp3 for some reason. So, if you have something that would be able to convert it to mp3, that would be great. I tried audio cutter, but it only extracts a few seconds w/o registering.


I've done some browsing and there is a free program called Audio Convertor-Extractor:

<< Here >>

It says its free?? Don't know whether the format thing works??

If it fails, host the video somewhere, send me a link and i'll extract it and send it back.

I appreciate you stil taking notice of this, it would be really handy. If/When we record it you can have a copy
'05 Fender Speed Shop So-Cal Stratocaster
'95 Squier Standard Strat

OLP MM1
Washburn X200v Pro

Tanglewood TW145-SC
Yamaha C40

Orange Dark Terror + PPC212
Jet City JCA20H + JCA24S
#7
I was able to find a youtube to mp3 converter that was completely free and got that to work. That's good b/c there are lots of live vids I can tab from now.

Give me about a week and I'll post the tab, I'm going to be out of town for a bit so I'll get on writing the solos when I get back.
#8
Quote by piesore
I was able to find a youtube to mp3 converter that was completely free and got that to work. That's good b/c there are lots of live vids I can tab from now.

Give me about a week and I'll post the tab, I'm going to be out of town for a bit so I'll get on writing the solos when I get back.


No worries, just the fact you've taken the time to look at it is appreciated.

Don't rush it i've got about 3 months to learn it

Regards,
Mad
'05 Fender Speed Shop So-Cal Stratocaster
'95 Squier Standard Strat

OLP MM1
Washburn X200v Pro

Tanglewood TW145-SC
Yamaha C40

Orange Dark Terror + PPC212
Jet City JCA20H + JCA24S
#9
I've finished tabbing the solos, I was going to wait until I've learned them closer to full speed, just to make sure everything was correct before I posted it, but I figured getting it to you sooner than later in some form was better.

So, there are most likely mistakes since I haven't really played through it again after tabbing, but I Think it's pretty close. The solo is in the C minor pentatonic, if that helps at all.

Also, b means bend, r is release ,if the b comes after the note, that means it's a regular bend, if it's before, it means the note should already be bent to a higher fret before you pick the string, so it should just sound like a few frets higher than it really is, rather than a bend. Same goes w/ r, if it comes after the note, that means it's a regular bend and release, if it comes before, that means the note should already be bent before you hit the string and you release the bend as you pick the note.
solo 1

e|-88-11br 8--8------------------------------------------------------------|
B|-88-------11-8-8-8-8--------------------------------11-------------------|
G|------------10b-10b--108--108---------8---88--8--10b--r10--10-9h10--9----|
D|------------------------10----10-10810--10--10-----------10-------10-----|
A|-------------------------------------------------------------------------|
E|-------------------------------------------------------------------------|


e|--------8--------8----------8-------11-13-11-1313b-13b-r13-----------------|
B|---11----11----11-11---11----11--/13----------------------11h13p11-----11--|
G|10b--b10----10b-----10b--b10--------------------------------------11h12--12|
D|---------------------------------------------------------------------------|
A|---------------------------------------------------------------------------|
E|---------------------------------------------------------------------------|

1:25
e|--------------------------------------------------------------------------------|
B|1311----------------------------------------------------------------------------|
G|----\10--8--8-10p8-10b-10b-r10p8--8--10b-10b-r10p8--8---------------------------|
D|----------10--------------------10----------------10------8-----8---------------|
A|------------------------------------------------------8h10--8h10--a-billion-tims|
E|--------------------------------------------------------------------------------|


e|-----------------------------------------------------------------------------------------|
B|-----------------------------------------------------------------------------------------|
G|------------------------------------------------8-10---10b-10b-r10p8--8-10b-10b-r10p8--8-|
D|-----8----8----8-----8----8------8----8-----8-10--------------------10---------------10--|
A|-8h10-8h10-8h10-8h10--8h10---8h10-8h10-8h10----------------------------------------------|
E|-----------------------------------------------------------------------------------------|

solo 2
2:09
e|-6/8-6/8--6/8-6/8--6/8-6/8--6/8-6/8--8p6h8-----6---8---6---8---6----------|
B|-6/8-6/8--6/8-6/8--6/8-6/8--6/8-6/8---------6h8-6h8-6h8-6h8-6h8-----------|
G|--------------------------------------------------------------------------|
D|--------------------------------------------------------------------------|
A|--------------------------------------------------------------------------|
E|--------------------------------------------------------------------------|

e|----6---8---6---8---6------6---8---6---8---6-----6---8---6---8-8----------|
B|-6h8-6h8-6h8-6h8-6h8----6h8-6h8-6h8-6h8-6h8---6h8-6h8---------------------|
G|--------------------------------------------------------------------------|
D|--------------------------------------------------------------------------|
A|--------------------------------------------------------------------------|
E|--------------------------------------------------------------------------|

e|----88----8---8--------8----8-----------------------------------------------|
B|----88-----------------8----8-----------------------------------------------|
G|-10b---10b-b10-r108-10b--10b--r108------------------------------------------|
D|-----------------------------------1010p810-8h10-8h10-8---------------------|
A|-------------------------------------------------------8h10-8h10-10p86-86---|
E|----------------------------------------------------------------------------|

solo 3
e|------8--11p811p8-------------------------------------------------------------|
B|-8-b11------------8811b-8--8---------------------------------------------1113-|
G|-------------------------108--8-10b 10b-r108---8-10b 10b-r108--8----8-/12-----|
D|----------------------------10--------------10---------------10---10----------|
A|------------------------------------------------------------------------------|
E|------------------------------------------------------------------------------|

e|b13-r13-11--11--11-b13-r13-11--11-15b-15-15b-15--151311--11---------------|
B|----------13--13-------------13------------------------13--13-------------|
G|-------------------------------------------------------------b10r108------|
D|--------------------------------------------------------------------------|
A|--------------------------------------------------------------------------|
E|--------------------------------------------------------------------------|

e|-----------11---------11--------------------------------------------------|
B|--------------------------------------------------------------------------|
G|-------8/12--r108-8/12--r108--8--8-10b 10b-r108---8--10b 10b-r108---8-----|
D|1010810---------------------10-10---------------10---------------10-------|
A|--------------------------------------------------------------------------|
E|--------------------------------------------------------------------------|

e|--------------------------------------------------------------------------|
B|--------------------------------------------------------------------------|
G|-----8888------8888---------------------------8-10p8-10b10b108------------|
D|-----8888------8888----8---108--8--108--8-8-10----------------108---------|
A|-8h10------8h10----8h10--10---10-10---------------------------------------|
E|--------------------------------------------------------------------------|
#10
Quote by piesore
I've finished tabbing the solos, I was going to wait until I've learned them closer to full speed, just to make sure everything was correct before I posted it, but I figured getting it to you sooner than later in some form was better.

So, there are most likely mistakes since I haven't really played through it again after tabbing, but I Think it's pretty close. The solo is in the C minor pentatonic, if that helps at all.

Also, b means bend, r is release ,if the b comes after the note, that means it's a regular bend, if it's before, it means the note should already be bent to a higher fret before you pick the string, so it should just sound like a few frets higher than it really is, rather than a bend. Same goes w/ r, if it comes after the note, that means it's a regular bend and release, if it comes before, that means the note should already be bent before you hit the string and you release the bend as you pick the note.
solo 1

e|-88-11br 8--8------------------------------------------------------------|
B|-88-------11-8-8-8-8--------------------------------11-------------------|
G|------------10b-10b--108--108---------8---88--8--10b--r10--10-9h10--9----|
D|------------------------10----10-10810--10--10-----------10-------10-----|
A|-------------------------------------------------------------------------|
E|-------------------------------------------------------------------------|


e|--------8--------8----------8-------11-13-11-1313b-13b-r13-----------------|
B|---11----11----11-11---11----11--/13----------------------11h13p11-----11--|
G|10b--b10----10b-----10b--b10--------------------------------------11h12--12|
D|---------------------------------------------------------------------------|
A|---------------------------------------------------------------------------|
E|---------------------------------------------------------------------------|

1:25
e|--------------------------------------------------------------------------------|
B|1311----------------------------------------------------------------------------|
G|----\10--8--8-10p8-10b-10b-r10p8--8--10b-10b-r10p8--8---------------------------|
D|----------10--------------------10----------------10------8-----8---------------|
A|------------------------------------------------------8h10--8h10--a-billion-tims|
E|--------------------------------------------------------------------------------|


e|-----------------------------------------------------------------------------------------|
B|-----------------------------------------------------------------------------------------|
G|------------------------------------------------8-10---10b-10b-r10p8--8-10b-10b-r10p8--8-|
D|-----8----8----8-----8----8------8----8-----8-10--------------------10---------------10--|
A|-8h10-8h10-8h10-8h10--8h10---8h10-8h10-8h10----------------------------------------------|
E|-----------------------------------------------------------------------------------------|

solo 2
2:09
e|-6/8-6/8--6/8-6/8--6/8-6/8--6/8-6/8--8p6h8-----6---8---6---8---6----------|
B|-6/8-6/8--6/8-6/8--6/8-6/8--6/8-6/8---------6h8-6h8-6h8-6h8-6h8-----------|
G|--------------------------------------------------------------------------|
D|--------------------------------------------------------------------------|
A|--------------------------------------------------------------------------|
E|--------------------------------------------------------------------------|

e|----6---8---6---8---6------6---8---6---8---6-----6---8---6---8-8----------|
B|-6h8-6h8-6h8-6h8-6h8----6h8-6h8-6h8-6h8-6h8---6h8-6h8---------------------|
G|--------------------------------------------------------------------------|
D|--------------------------------------------------------------------------|
A|--------------------------------------------------------------------------|
E|--------------------------------------------------------------------------|

e|----88----8---8--------8----8-----------------------------------------------|
B|----88-----------------8----8-----------------------------------------------|
G|-10b---10b-b10-r108-10b--10b--r108------------------------------------------|
D|-----------------------------------1010p810-8h10-8h10-8---------------------|
A|-------------------------------------------------------8h10-8h10-10p86-86---|
E|----------------------------------------------------------------------------|

solo 3
e|------8--11p811p8-------------------------------------------------------------|
B|-8-b11------------8811b-8--8---------------------------------------------1113-|
G|-------------------------108--8-10b 10b-r108---8-10b 10b-r108--8----8-/12-----|
D|----------------------------10--------------10---------------10---10----------|
A|------------------------------------------------------------------------------|
E|------------------------------------------------------------------------------|

e|b13-r13-11--11--11-b13-r13-11--11-15b-15-15b-15--151311--11---------------|
B|----------13--13-------------13------------------------13--13-------------|
G|-------------------------------------------------------------b10r108------|
D|--------------------------------------------------------------------------|
A|--------------------------------------------------------------------------|
E|--------------------------------------------------------------------------|

e|-----------11---------11--------------------------------------------------|
B|--------------------------------------------------------------------------|
G|-------8/12--r108-8/12--r108--8--8-10b 10b-r108---8--10b 10b-r108---8-----|
D|1010810---------------------10-10---------------10---------------10-------|
A|--------------------------------------------------------------------------|
E|--------------------------------------------------------------------------|

e|--------------------------------------------------------------------------|
B|--------------------------------------------------------------------------|
G|-----8888------8888---------------------------8-10p8-10b10b108------------|
D|-----8888------8888----8---108--8--108--8-8-10----------------108---------|
A|-8h10------8h10----8h10--10---10-10---------------------------------------|
E|--------------------------------------------------------------------------|


I'm sooo sorry i didn't notice this before, You are a God, thankyou!!!

It sounds really good, many thanks!

Will send you a copy if/when we do this live
'05 Fender Speed Shop So-Cal Stratocaster
'95 Squier Standard Strat

OLP MM1
Washburn X200v Pro

Tanglewood TW145-SC
Yamaha C40

Orange Dark Terror + PPC212
Jet City JCA20H + JCA24S
Last edited by Madsalty at Mar 5, 2008,