#1
what would the best way to play tis be?
c.|---17h12h8-----8---|repeat this a couple times
g.|----------10-10----|
d*|------------9------|
a*|-------------------|
f.|-------------------|
C.|-------------------|
shud itap with the pick hold my hand a certain way or what
#3
Quote by Jacob Baldwin
what would the best way to play tis be?
c.|---17h12h8-----8---|repeat this a couple times
g.|----------10-10----|
d*|------------9------|
a*|-------------------|
f.|-------------------|
C.|-------------------|

shud itap with the pick hold my hand a certain way or what


Whichever way feels best for you. I would use my finger. Practice it slowly and make sure you have your right hand positioned correctly or it'll get sloppy/you might hurt yourself.
#4
c.|---17h12h8-----8---|
g.|----------10-10----|
d*|------------9------|
a*|-------------------|
f.|-------------------|
C.|-------------------|
      t1 4 1 3 2 3 1


if that works for you.
#5
If you can already sweep an alternative might be something like this:

e|-17p12----------------12h17-
b|-------13----------13-------
g|----------14----14----------
d|-------------14-------------
a|----------------------------
e|----------------------------
R.I.P. My Signature. Lost to us in the great Signature Massacre of 2014.

Quote by Master Foo
“A man who mistakes secrets for knowledge is like a man who, seeking light, hugs a candle so closely that he smothers it and burns his hand.”


Album.
Legion.
#6
huh?! lol.. what's a simple minor arpeggio like this doing in advanced tehniques?

anyway, that pattern richwatkinson showed is the one you'll want --> 8th position --> pure logic
1953 Epiphone zephyr
1988 PRS custom 24
1960 Moon oct. mandolin