#1
does anyone know where i can find a tab to that ringtone. it sounds so damn awesome. it would also be sick just to show off with it.
Quote by MakinLattes
dwelling on past mishaps is for the weak. you must stride into the future, unabashed and prepared to fuck up yet again.
#2
-----3----3-5-3--------
--5----1----------1----
-------------------------
-------------------------
-------------------------
-------------------------

I think?

╠═══════╬═══════╣

Solder fume huffer σƒ τλε τρπ βπστλεπλσσδ

╠═══════╬═══════╣

Electronic Audio Experiments
#3
sweet
Quote by MakinLattes
dwelling on past mishaps is for the weak. you must stride into the future, unabashed and prepared to fuck up yet again.
#4
It's
--------12-----12/14/12--------------
---10------9---------------10----------
-9---------------------------------------
------------------------------------------
------------------------------------------
------------------------------------------
It's also my first tab
[IMG]http://i130.photobucket.com/albums/p263/bjskullkid/Signiturecopy-1.jpg[/IMG]
#5
This should prolly be in tabs forum.

Insanedit:
Sorry, I read it as When a stranger calls.
"We were one among the fence"
Quote by diofan88
You have no idea how many mornings my dad has woken up to me in my underroos rocking out in the morning...on a mission...A MISSION TO ROOOOCCCCKKKKK!!!!!
Last edited by Insanitydenied at Nov 26, 2008,
#7
it's a maj7 chord, basically.

EDIT: I learned the first day of music theory class, when we were learning seventh chords and their inversions. When we got to M7, i played it and then my pianist friend looked at me funny and played the ringtone out and we were like 'ZOMG! >.O' haha
Last edited by JMTrio134 at Nov 26, 2008,
#8
This is the japaneese version (i hope that was the one u was looking 4)

This sounds pright, but in the end im not so sure, but anyways

One missed call tabs
G------------------------
D------4----------2-----
A-1-5----5----4----4-
E------------5---------

G----------------------
D------4-------2-7--
A-1-5----5----4-----
E-----------5---------

G----------------------------------------5---------5---------5-------
D-5--4--2--5--4--2------------5-4-----------7---------7---------
A----------------------5-4-4-1------------6----------6------------
E--------------------------------------------------------------------

G-5------5-------5-----3--5--7----5-3--5-3---5-3---
D----7-------7-------7-----------7------7--------------
A------6-------6-----------------------------------------
E----------------------------------------------------------


B5 D6 F#6 D6 A#5 C#6 E6 C#6
B5 D6 F#6 D6 A#5 C#6 E6 A#6
G6 F#6 E6 G6 F#6 E6
D6 c#6 C#6 B6 G6 F#6 D#6 C7 A6 C7 D#6
C7 A6 D#6 C7 A6 D#6 c7 A6 B6 C7 D7 C7
B6 A6 B6 C7 B6 A6 B6 C7

You can play this on guitar and the notes can be used on piano :P

Tabs made by Leon/1993bassplayer
Last edited by 1993Bassplayer at Dec 22, 2008,