#1
Been searching the net for a while; cannot seem to find any tabs for "Rosetta Stone," imho probably one of the best Spin Doctor's songs.

Give a listen here: http://www.last.fm/music/Spin+Doctors/_/Rosetta+Stone

A great guitar song with a lot of E pent minor, almost Santana-esque. Any help would be greatly appreciated, or would anyone want to take a stab at it with me?

Cheers
#2
Well, no response so I decided to give it a little shot. Here is the beginning:

|------0-------------------------0---------------------|
|------------------------------------------------------|
|----------------7----7\-------------------7------7\---|
|----2----/9----------7\-------2----/9----------7------|
|-------------9-----9-------------------9-----9--------|
|-0-------------------------0--------------------------|


|------0-------------------------0---------------------------|
|------------------------------------------------------------|
|----------------7----7\-------------------7------8--9---9---|
|----2----/9----------7\-------2----/9----------7-8--9---9---|
|-------------9-----9-------------------9-----9--------------|
|-0-------------------------0--------------------------------|


|----------------------0------------------------|
|-----------------------------------------------|
|-8--7-----7---------------------7--------7-----|
|-8--7---7-----------2----/9--------7---7---7---|
|-------------9\--------------9-------9---------|
|-----------------0-----------------------------|



Let me know if anyone is interested (or wants to help), and I'll post more when I figure it out.