#1
Does anyone know how to play this? I want to show up to band practice and just whip it out.
w/o bass n drums, there wouldn't really be rock music.

Schecter is pronounced 'Shek-ter', right? I don't want to walk in and say, "Hey, can I try out that Sketcher?" and have the helper reply with "Wtf, we don't sell shoes!"
#2
use your wah, and it's not on a bass, it's on a guitar.
Jesus for president. PM me to join the campaign. or just sig it.

Of course God has a sense of humor. Look at the Platypus...

Member #9 of the Trumpet Players' Alliance, PM E V H 5150 to inquire about joining.
#5
I need the tab...
w/o bass n drums, there wouldn't really be rock music.

Schecter is pronounced 'Shek-ter', right? I don't want to walk in and say, "Hey, can I try out that Sketcher?" and have the helper reply with "Wtf, we don't sell shoes!"
#6
---x-----------------------------------------
---x----------------------------------------
---x----------6---8----8(b)---8~~~~---
---x------8---------------------------------
---x-----------------------------------------
---x---------------------------------------
/\ palm mute, left hand, and strum strings, while using wah pedal.


that's how. ish.
Jesus for president. PM me to join the campaign. or just sig it.

Of course God has a sense of humor. Look at the Platypus...

Member #9 of the Trumpet Players' Alliance, PM E V H 5150 to inquire about joining.
#8
I'd like to hear it done with a talkbox. That'd be cool.
(\__|)
(='.'=) This is Bunny. Copy and paste Bunny into your
(")_(") signature to help him gain World Domination.

92% of teenagers have moved on to rap. Sig this if you think most new popular music sucks.
#9
---x-----------------------------------------
---x----------------------------------------
---x----------6---8----8(b)---8~~~~---
---x------8---------------------------------
---x-----------------------------------------
---x---------------------------------------


cool!
w/o bass n drums, there wouldn't really be rock music.

Schecter is pronounced 'Shek-ter', right? I don't want to walk in and say, "Hey, can I try out that Sketcher?" and have the helper reply with "Wtf, we don't sell shoes!"
#10
Quote:
---x-----------------------------------------
---x----------------------------------------
---x----------6---8----8(b)---8~~~~---
---x------8---------------------------------
---x-----------------------------------------
---x---------------------------------------


cool!


i changed my mind, this sucks
w/o bass n drums, there wouldn't really be rock music.

Schecter is pronounced 'Shek-ter', right? I don't want to walk in and say, "Hey, can I try out that Sketcher?" and have the helper reply with "Wtf, we don't sell shoes!"
#12
Seriously. Couldn't be that hard, there's probably 20 different ways to do it if you have a wah pedal.
I'm not a fan of facts. You see, the facts can change, but my opinion will never change, no matter what the facts are. - Stephen Colbert