#1
hey guys and girls,,,,

i'm not sure im in the right room to ask this question.. but i'm new to the guitar. i have only been playing for about 6 months and i am wanting to learn how to get fast with my fingers.. can someone tell me some warm ups that i can do and some scales that will work out my fingers and get them used to running up and down the neck... thanks.
#2
It all comes with time, just keep playing, you wont be fast the day you pick up guitar.
The Set Up
1- Bc.Rich Nj Series Best w/Emgs
2-Ibanez v-blade, custom snakeskin
3-Fender Stratocaster
4-1986 Charvel Model 5
///
MXR Phase 90
BBE Sonic Maximizer
Dunlop crybaby original
#3
ok, try to alternate pick on any scales you use and also make sure you get it perfect before you try to go faster. Id practice the blues scale, a major etc everyday before you start to learn a new song or technique, just to get your fingers warmed up
#4
e-----3-1-----4-2-----5-3
B----2---2---3---3---4---4
G---1-----3-2-----4-3-----5

keep continuing this, means that you move up 1 fret every time.
Start with this training very slow, like 40 BPM. Then, if you really master it keep speeding it up.

This training helped me, and is still helping me, a lot.

hope you do something with it.
cheers
Let's Have A Game On A Teddy Picker
__________________________________________

Squier Mod Stratocaster Arctic White
Vox DA20
#5
Try this:

|---------------------------------------------1-2-3-4-5-4-3-2------------------------------------------------------------------
|------------------------------------1-2-3-4-------------------5-4-3-2---------------------------------------------------------
|---------------------------1-2-3-4-------------------------------------5-4-3-2------------------------------------------------
|------------------1-2-3-4--------------------------------------------------------5-4-3-2--------------------------------------
|---------1-2-3-4--------------------------------------------------------------------------5-4-3-2-------------------3-4-5-6-
|1-2-3-4--------------------------------------------------------------------------------------------5-4-3-2-3-4-5-6----------
Etc.


Go up to the 12th fret.

Do the same thing again, but go 1-3-2-4 instead.
#7
Tuning from Low to High (DGCFAD) "D-Standard"

|--------------------------------------------------------------------------------------|
|--------------------------------------------------------------------------------------|
|--------------------------------------------------------------------------------------|
|---5---5-4---4-----5---5---9-8---8---7----5---5-4---4-----5---5---9\8---8*|
|-7---7-----------6---7---7-----6---6----7---7-----------6---7---7-----7-------|
|0----------0---0-----------------------0----------0---0----------------------------|

* Pinch Harmonic
#8
is it easier to learn barre chords then chords? i have learned alot of chords and i am trying to learn barre chords but i'm having a hard time getting my fingers to cooperate.