#1
something that amuses you.. or something you made up thats tricky on the fingers.

e----------------------------------------------------------------------------------------
B----------------------------------------------------------------------------------------
G----------------------------------------------------------------------------------------
D----------------------------------------------------------------------------------------
A----------------------------------------------------------------------------------------
E----------------------------------------------------------------------------------------
#2
E-------12-----------|
B-------10-----------|
G--------9------------|
D-------10-----------|
A--------0------------|
E---------------------|

I can't even remember what chord that is and I'm too lazy too think about it... I think Am...

It's at the end of Is There Anybody Out There? - Pink Floyd
#3
Jonjy2's chord looks a lot like one of my favorites:

e----12----------------
B----10----------------
G----9-----------------
D----7-----------------
A----0-----------------
E-----------------------
What I play:
CustomShop '51 Nocaster Relic
'88 "C" neck Clapton Strat
'08 Strat HSH
Fender Princeton Recording Amp
Boss Micro-BR
#4
e-0----
b-x----
g-14--
d-9----
a-7----
e-7----

god i love that chord
that 14 can be changed to 12-11-or 9 =)

although i usually dont add the 0 on the e
Quote by metul kult
You know when Attack Attack is ripping off your music, you're onto something


twitter: @victorstaygold
Last edited by envoykrawkwar7 at Feb 7, 2008,
#5
e-
b-6
g-7
d-5
a-6
d-5

(notice dropped tuning)
misery signaaaaaaals

╠═══════╬═══════╣

THE ARCHITECT σƒ τλε τρπ βπστλεπλσσδ

╠═══════╬═══════╣



drone/doom/post-metal: http://theygrieve.bandcamp.com
#7
Quote by envoykrawkwar7
e-0----
b-x----
g-14--
d-9----
a-7----
e-7----

god i love that chord
that 14 can be changed to 12-11-or 9 =)

although i usually dont add the 0 on the e

why not change the 14 to a 10 on the b string...it'd make things a whole lot easier haha
#8
Quote by Jonjy2
E-------12-----------|
B-------10-----------|
G--------9------------|
D-------10-----------|
A--------0------------|
E---------------------|

I can't even remember what chord that is and I'm too lazy too think about it... I think Am...

It's at the end of Is There Anybody Out There? - Pink Floyd



So good.
Metal Head

One Day, We'll All Go Into The Water.
Go, Into The Water, Live There, Die There.

Gear
Squier Stratocaster
Jackson Pro Series Kelly
Jackson Dinky Sustaniac
Roland Cube 60
Peavey Triple XXX Stack
#9
i'm not the fingering type of guy, I usually just go right for it
Decaptivated

Ibanez S370 (all custom)
Mesa Boogie Studio Pre
Fender Champ 25se (used to power Mesa pre)
Custom 2x12 cab w/ Eminence Texas Heats
#10
e---9----
B---9----
G---8----
D---6----
A---7----
E---------


or
e---0----
B---7----
G---8----
D---9----
A---10---
E---0-----
Call me "Shot".

ShotRod Guitar Works

Custom Hand-wired Amplifiers and Effect Pedals.

Est. 2007


Source to everything I say about Guitars, Pedals, and Amplifiers: I make them.


UG's Best DIY PedalBoard
#11
e---7----5--
B---8----7--
G---11--9--
D---9----7--
A---7----5--
E------------
Those are nice chords. I like fingerplaying over them.
#12
It's so easy to tell who here plays Jazz.... Only Jazz and some Metal would have some of the chords listed here....
#13
Quote by Jonjy2


I can't even remember what chord that is and I'm too lazy too think about it... I think Am...


yeah, it's an Am

tricky on the fingers? this chord.

e--13------------------------------------------------------------------------------------
B---1------------------------------------------------------------------------------------
G--14-------------------------------------------------------------------------------------
D---3--------------------------------------------------------------------------------------
A--15-------------------------------------------------------------------------------------
E---1-------------------------------------------------------------------------------------

now that's a chord baby.


...Nothing you've ever...
...Planned on ever turned out...
...The way you planned...


...You're still disappointing them...
#14
Quote by Its_Rock77
yeah, it's an Am

tricky on the fingers? this chord.

e--13------------------------------------------------------------------------------------
B---1------------------------------------------------------------------------------------
G--14-------------------------------------------------------------------------------------
D---3--------------------------------------------------------------------------------------
A--15-------------------------------------------------------------------------------------
E---1-------------------------------------------------------------------------------------

now that's a chord baby.



If you're awesome a tapping, I'd like to see someone do it. :P
#15
Quote by fob12
If you're awesome a tapping, I'd like to see someone do it. :P


If you get some one else to strum it and you use both hands...


it's 'odd' sounding...
#16
Quote by Captian Xero
If you get some one else to strum it and you use both hands...


it's 'odd' sounding...


Or you can use your right hand thumb. its hard, but doable.
#17
Quote by -Sidewinder-
why not change the 14 to a 10 on the b string...it'd make things a whole lot easier haha


because it needs the percussive effect of the muted b to sound right
and because its easier to slide teh pinky from 14 to 12 to 11 to 9 and back fluidly on one sting [2 strign sliding is like not very possible]

and it just looks awesoem and is a great warm up chord
Quote by metul kult
You know when Attack Attack is ripping off your music, you're onto something


twitter: @victorstaygold