#1
12-15-----------------------------------------|
--------12-14---------------------------------|
----------------12-14-------------------------|
------------------------12-14-----------------|
--------------------------------12-15---------|
----------------------------------------12-15-| Then back up

This right?
#3
Quote by musiclover2186
i think you mean pentatonic


sry im new to guitar if thats what it is thats what i meant
#4
Quote by BubbaBassGuitar
12-15-----------------------------------------|
--------12-15---------------------------------|
----------------12-14-------------------------|
------------------------12-14-----------------|
--------------------------------12-14---------|
----------------------------------------12-15-| Then back up

I fixed it for ya
#7
Quote by ralph wiggum
thats e minor pentatonic yea?


Nah i'm pretty sure it an E major pentatonic
#8
Quote by futsalman
Nah i'm pretty sure it an E major pentatonic

No it's E minor.
#10
LoL when I read the title I actually thought this is some kind of real scale,not just misspelled pentatonic.
Current situation:
Proud owner of Jackson JS30RR and Roland Cube 30X
#12
Quote by Riding to Town
Plutonic scale. Misuse of this will result in a nuclear holocaust.


That my friend is hilarious..