#1
Ok I have looked at many different versions of this tab, though in the real song there are a few things missing though.

e|---------------------------------------------------------------------------|
B|---------------------------------------------------------------------------|
G|--------4-------6-------7------9----9--5--4--------------------------------|
D|--------2-------4-------5------7----7--7--7--------------------------------|
A|---------------------------------------------------------------------------|
E|-0-0-0---0-0-0---0-0-0---0-0-0---------------------------------------------|

That's the one I am learning off of. Right after each power chord it sounds like I am missing something. This is throwing me off. Is ir missing or is it just something you put in without actually hitting strings.

Sorry I am still new at the guitar so don't know technical terms
#2
This is what i meant when I said I was still new. I can't seem to get it out right of how I see it. There are two notes right after the power chord in the real song that aren't in the tab. I can hear them, or they might be on a different guitar. I don't know how to explain it really.
#4
might sound a little better like this:

e|---------------------------------------------------------------------------|
B|---------------------------------------------------------------------------|
G|--------4-------6-------7------9----9--7--7--------------------------------|
D|--------2-------4-------5------7----7--5--4--------------------------------|
A|---------------------------------------------------------------------------|
E|-0-0-0---0-0-0---0-0-0---0-0-0---------------------------------------------|

the last 2 just sounded a bit off.....palm mute the opens too....just keep practicing try playing with the song to get your timing....that could be all that you need
#5
I think there might be a muted string played right after the power chord
i'm pretty sure it should look like this (not 100% tho, i don't play that game lol):


e|-------------------------------|
B|-------------------------------|
G|----------4---------6----------| ETC.
D|----------2---------4----------|
A|-------------------------------|
E|---0-0-0----x-0-0-0----x-0-0-0-|




Mute the open strings as well
Last edited by Xaveir at Feb 8, 2008,