#1
Hey, this is more of a question on how to play this song. I'm not completely sure on the intro, could someone tell me exactly how to play it?

I about an intermediate guitarist
Last edited by /\AC/\DC/\ at Feb 8, 2008,
#2
you definitely need some delay or echo, that's for sure


i think
Keep the change, pimps don't jangle
#5
ya man intro goes like this


4 4 4 4 or we with echo on the g string,

then...

e -------------------------------------------------------------------------------------------------
b -------0--------0--------------------------------------------------------------------------------
g ----4----4--2----2-----0-------0-----------------------------------------------------------------
d -----------------------4---4--2----2----0--0------0---------------------------------------------
a --------------------------------------------------2-------------------------------------------
e -------------------------------------------------------------------------------------------------

important note, make sure you alternate pick this or it'll be a bitch
#7
^^I don't think that's right.

I think this is how it goes:

E--------------------------------------------------------------------------
B-----0-----0-----0----0-----0------------------------------------------
G---4--4-2--2-----------------------------------------------------------
D----------------4--4-2--2-0--2----------------------------------------
A--------------------------------------------------------------------------
E--------------------------------------------------------------------------
Washburn D-12
Ibanez RG
Ibanez RG 7321
Epiphone Les Paul / EMG 81 85
Fender MIM Ash Stratocaster
Digitech Whammy
Small Stone Phaser
Boss SD-1-Modded
Boss MT-2-Modded
Boss CE-5
Boss DD-3-Modded
ISP Decimator
B-52 AT-212
#8
alternate picking is up and down picking instead of just down, this way you get 2x the speed, ya im sorry his is right i messed up ha ha silly me
#9
oh, i play like that anyway, lol, thanks guys, and do you also have to palm mute all of the notes?