#1
Okay I had a pretty silly, but possibly fun idea today, everyone writes one big tab for bass, each person can add 3 notes per turn and we can see what we come up with.

G|---------------------------------------------------------------|
D|---------------------------------------------------------------|
A|---------------------------------------------------------------|
E|-0-5-3-------------------------------------------------------|


Then the next person adds 3 more notes onto that. Try to test it before you post though

Have fun
UG's Yellow Ranger

#2
lol, cool idea...

G|---------------------------------------------------------------|
D|---------------------------------------------------------------|
A|--------0-5-3------------------------------------------------|
E|-0-5-3-------------------------------------------------------|
#3
G|----------------4-2-----------------------------------------|
D|---------------------5------------------------------------------|
A|--------0-5-3------------------------------------------------|
E|-0-5-3-------------------------------------------------------|
__________________
Quote by Cody_Grey102
I was looking at a used Warwick Vampyre LTD 5'er for about $200. I went home to grab my wallet and came back and some jerk with an epic beard got it already..
#4
G|----------------4-2-----------------------------------------|
D|---------------------5-3p2h3-----------------------------------------|
A|--------0-5-3------------------------------------------------|
E|-0-5-3-------------------------------------------------------|
#5
G|----------------4-2-----------------------------------------------------|
D|---------------------5-3p2h3-5---------------------------------------|
A|--------0-5-3--------------------3-5----------------------------------|
E|-0-5-3-----------------------------------------------------------------|
The prog kid from way down under of the Bass Militia, PM Nutter_101 to join

GENERATION 7: The first time you see this, copy it into your sig on any forum and add 1 to the generation. Social experiment.
#6
G|----------------4-2-----------------------------------------------------|
D|---------------------5-3p2h3-5---------------------------------------|
A|--------0-5-3--------------------3-5----------------------------------|
E|-0-5-3-------------------------------4-2-0---------------------------|
Quote by amitbob21
ok im a noob at slapping. Is it my strings or do i just suck at slapping? I have a squier fender J bass(im a noob). Im thinking of getting Ibanez GSR200


Quote by CheekanWofls
Practice on your wife
#7
G|----------------4-2--------------------------14-14-------------------|
D|---------------------5-3p2h3-5--------------------0-----------------|
A|--------0-5-3--------------------3-5----------------------------------|
E|-0-5-3-------------------------------4-2-0---------------------------|
#8
G|----------------4-2--------------------------14-14-------------------|
D|---------------------5-3p2h3-5--------------------0-----------------|
A|--------0-5-3--------------------3-5----------------------------------|
E|-0-5-3-------------------------------4-2-0--------------0-5-3-------|
I'm not a fan of facts. You see, the facts can change, but my opinion will never change, no matter what the facts are. - Stephen Colbert

#9
G|----------------4-2--------------------------14-14--------------9-----|
D|---------------------5-3p2h3-5--------------------0------------9-----|
A|--------0-5-3--------------------3-5-----------------------------7-----|
E|-0-5-3-------------------------------4-2-0--------------0-5-3-------|
Cort lover of the Bass Militia. PM Nutter_101 to join.
On cheating in a relationship...

Quote by metaldud536
If he doesn't use a gameshark, it's not cheating.




I'm a non-regular regular old user.
#10
G|----------------4-2--------------------------14-14--------------9---12*|
D|---------------------5-3p2h3-5--------------------0-------------9----9*|
A|--------0-5-3--------------------3-5----------------------------7----9*|
E|-0-5-3-------------------------------4-2-0--------------0-5-3----------|

* denotes harmonic


Keep it in code guys, makes it much neater.
Founder of Jaco society

[22:08:23] <Confusius> I wish I was a bassist
[22:08:26] <Confusius> you fuckers look cool


Want to know how to play bass in jazz? Read this.
#11
G|----------------4-2--------------------------14-14--------------9---12*---------|
D|---------------------5-3p2h3-5--------------------0-------------9----9*---------|
A|--------0-5-3--------------------3-5----------------------------7----9*----0h2p0|
E|-0-5-3-------------------------------4-2-0--------------0-5-3-------------------|



If you hate this part next person just delete it and i won't hate you.
Last edited by matt-attack at Feb 8, 2008,
#12
The code part isn't hard just put [code][/code] around the tab.
Founder of Jaco society

[22:08:23] <Confusius> I wish I was a bassist
[22:08:26] <Confusius> you fuckers look cool


Want to know how to play bass in jazz? Read this.
#13
It sounded cool until someone switched the progression lol.



G|----------------4-2--------------------------14-14--------------9---12*----------------|
D|---------------------5-3p2h3-5--------------------0-------------9----9*-----------0-2-3|
A|--------0-5-3--------------------3-5----------------------------7----9*----0h2p0-------|
E|-0-5-3-------------------------------4-2-0--------------0-5-3--------------------------|
Last edited by silentscream51 at Feb 8, 2008,
#14
G|----------------4-2--------------------------14-14--------------9---12*-------------------5-3--|
D|---------------------5-3p2h3-5--------------------0-------------9----9*-----------0-2-3-----5--|
A|--------0-5-3--------------------3-5----------------------------7----9*----0h2p0--------------|
E|-0-5-3-------------------------------4-2-0--------------0-5-3-----------------------------------|
The prog kid from way down under of the Bass Militia, PM Nutter_101 to join

GENERATION 7: The first time you see this, copy it into your sig on any forum and add 1 to the generation. Social experiment.
#15

G|----------------4-2--------------------------14-14--------------9---12*-------------------5-3----t15----|
D|---------------------5-3p2h3-5--------------------0-------------9----9*-----------0-2-3-----5----t15----|
A|--------0-5-3--------------------3-5----------------------------7----9*----0h2p0---------------t3---------|
E|-0-5-3-------------------------------4-2-0--------------0-5-3------------------------------------------------|

t = tap
#16

G|----------------4-2--------------------------14-14--------------9---12*-------------------5-3----t15----|
D|---------------------5-3p2h3-5--------------------0-------------9----9*-----------0-2-3-----5----t15----|
A|--------0-5-3--------------------3-5----------------------------7----9*----0h2p0--------------t3--------|
E|-0-5-3-------------------------------4-2-0--------------0-5-3-------------------------------------------|


|----t15--15--------------------|
|----t15----15------------------|
|-t3----------3-----------------|
|-------------------------------|

t = tap
"I don't understand how one can kill a man in the name of peace, that's ridiculous."
- JBT
#17

G|----------------4-2--------------------------14-14--------------9---12*-------------------5-3----t15----|
D|---------------------5-3p2h3-5--------------------0-------------9----9*-----------0-2-3-----5----t15----|
A|--------0-5-3--------------------3-5----------------------------7----9*----0h2p0--------------t3--------|
E|-0-5-3-------------------------------4-2-0--------------0-5-3-------------------------------------------|


|----t15--15--------------------|
|----t15----15-----14-15-----------|
|-t3----------3/13-------------|
|-------------------------------|

t = tap
#18
G|----------------4-2--------------------------14-14--------------9---12*-------------------5-3----t15----|
D|---------------------5-3p2h3-5--------------------0-------------9----9*-----------0-2-3-----5----t15----|
A|--------0-5-3--------------------3-5----------------------------7----9*----0h2p0--------------t3--------|
E|-0-5-3-------------------------------4-2-0--------------0-5-3-------------------------------------------|


|----t15--15----------------17-15/19|
|----t15----15-----14-15-------------|
|-t3----------3/13----------------------|
|-----------------------------------------|

t = tap
Quote by skater dan0
Damn you and your ninja-like modding
#19

G|----------------4-2--------------------------14-14--------------9---12*-------------------5-3----t15----|
D|---------------------5-3p2h3-5--------------------0-------------9----9*-----------0-2-3-----5----t15----|
A|--------0-5-3--------------------3-5----------------------------7----9*----0h2p0--------------t3--------|
E|-0-5-3-------------------------------4-2-0--------------0-5-3-------------------------------------------|


|----t15--15----------------17-15/19--20-19-17|
|----t15----15-----14-15----------------------|
|-t3----------3/13----------------------------|
|---------------------------------------------|

t = tap
#20

G|----------------4-2--------------------------14-14--------------9---12*-------------------5-3----t15----|
D|---------------------5-3p2h3-5--------------------0-------------9----9*-----------0-2-3-----5----t15----|
A|--------0-5-3--------------------3-5----------------------------7----9*----0h2p0--------------t3--------|
E|-0-5-3-------------------------------4-2-0--------------0-5-3-------------------------------------------|


|----t15--15----------------17-15/19--20-19-17--P17/19|
|----t15----15-----14-15-----------------------------|
|-t3----------3/13---------------------------s15-----|
|----------------------------------------------------|

t = tap, s=slap, P=pop
Last edited by Copius at Feb 9, 2008,
#21
Quote by Copius

G|----------------4-2--------------------------14-14--------------9---12*-------------------5-3----t15----|
D|---------------------5-3p2h3-5--------------------0-------------9----9*-----------0-2-3-----5----t15----|
A|--------0-5-3--------------------3-5----------------------------7----9*----0h2p0--------------t3--------|
E|-0-5-3-------------------------------4-2-0--------------0-5-3-------------------------------------------|


|----t15--15----------------17-15/19--20-19-17--P17/19-16b17-19--|
|----t15----15-----14-15------------------------------------------|
|-t3----------3/13---------------------------s15------------------|
|--------------------------------------------------------------------|

t = tap, s=slap, P=pop b=bend



---
#23
|----t15--15----------------17-15/19--20-19-17--P17/19-16b17-19--|
|----t15----15-----14-15------------------------------------------|
|-t3----------3/13---------------------------s15------------------|
|--------------------------------------------------------------------|


Subconsciously we have made it so that no one T-bird owner can play our song. Serves them right.
#24
 G|----------------4-2--------------------------14-14--------------9---12*-------------------5-3----t15----|
D|---------------------5-3p2h3-5--------------------0-------------9----9*-----------0-2-3-----5----t15----|
A|--------0-5-3--------------------3-5----------------------------7----9*----0h2p0--------------t3--------|
E|-0-5-3-------------------------------4-2-0--------------0-5-3-------------------------------------------|


|----t15--15----------------17-15/19--20-19-17--P17/19-16b17-19--------------|
|----t15----15-----14-15---------------------------------------------------------P11|
|-t3----------3/13---------------------------s15--------------------------------------|
|-------------------------------------------------------------------------s0h8/9-------|

t = tap, s=slap, P=pop b=bend
Quote by MeltingWaxFace
Your first mistake was getting a Chinese lady to cut your hair.

Your second mistake was getting someone who doesn't speak English to cut your hair.

Your third mistake was listening to your dicklock parents.

#25
Quote by Captain Insano
|----t15--15----------------17-15/19--20-19-17--P17/19-16b17-19--|
|----t15----15-----14-15------------------------------------------|
|-t3----------3/13---------------------------s15------------------|
|--------------------------------------------------------------------|


Subconsciously we have made it so that no one T-bird owner can play our song. Serves them right.


Our group subconscious is very locked in with it's own prejudices. And yes it does serve them right.