#1
hey ive been playing a month
do u think this version of canon in d major is too hard?

if so can u suggest a easier version that sounds good too?


Gtr I (D A D G B E) - 'Classical (drop D)'

Q=83
D A Bm F#m G D G A
4/4
Gtr I
E E E E E E E E E E E E E E E E E E E E E E E E E E E E E E E E
|-------2-------0-|-----------------|---------------2-|-----------------|
|-----3-------2---|-------3-------2-|-------0-----3---|-------0-------2-|
|---2-------2-----|-----4-------2---|-----0-----2-----|-----0-------2---|
|-0---------------|---4-------4-----|---0-------------|---0-------2-----|
|---------0-------|-2---------------|-----------------|---------0-------|
|-----------------|---------4-------|-5-------0-------|-5---------------|
H H H H H H H H


E E E E E E E E E E E E E E E E
|-2-(2)-(2)-2-0-(0)-(0)-0-|-------------------------|
|--------3-----------2----|-3-(3)-(3)-3-2-(2)-(2)-2-|
|----2-----------2--------|--------4-----------2----|
|-0-----------------------|----4-----------4--------|
|-------------0-----------|-2-----------------------|
|-------------------------|-------------4-----------|
H H H H


E E E E E E E E E E E E E E E E
|-------------------------|--------------------------|
|-0-(0)-(0)-0-------------|-0-(0)-(0)-0-2-(2)-(2)-2--|
|--------0----2-(2)-(2)-2-|--------0-----------2-----|
|----0---------------4----|----0-----------2---------|
|----------------5--------|-------------0------------|
|-5-----------0-----------|-5------------------------|
H H H H


E E E E E E E E E E E E E E E E
|-2-(2)-(2)--2--0-(0)-(0)--0--|-----------------------------|
|-3-(3)--3--(3)-2-(2)--2--(2)-|-3-(3)-(3)--3--2-(2)-(2)--2--|
|----2-------------2----------|-4-(4)--4--(4)-2-(2)--2--(2)-|
|-0---------------------------|----4-------------4----------|
|---------------0-------------|-2---------------------------|
|-----------------------------|---------------4-------------|
H H H H


E E E E E E E E E E E E E E E E
|-----------------------------|------------------------------|
|-0-(0)-(0)--0----------------|-0-(0)-(0)--0--2-(2)-(2)--2---|
|-0-(0)--0--(0)-2-(2)-(2)--2--|-0-(0)--0--(0)-2-(2)--2--(2)--|
|----0----------4-(4)--4--(4)-|----0-------------2-----------|
|------------------5----------|---------------0--------------|
|-5-------------0-------------|-5----------------------------|
H H H H


H H H H H H H H
|-2-----0-----|-----------------|-----------------|------------------|
|-3-----2-----|-3-------2-------|-0---------------|-0-------2--------|
|-------2--0--|-4-------2-------|-0-------2-------|-0-------2---2----|
|-0--4--------|-4---0---4---2---|-0-------4-------|-0-------2--------|
|-------------|-2--(2)----------|-----2---5---0---|-----2---0--(0)---|
|-------------|---------4--(4)--|-5--(5)--0--(0)--|-5--(5)-----------|
Q Q Q Q Q Q Q Q Q Q Q Q Q Q Q Q


H Q Q Q Q H Q Q Q Q Q Q a a Q. E
|----------0--|-----2---5-------|-----------------|--------------------------|
|-3-----2-----|-3---3---2-------|-0-----------3---|-0---3---3p2h3tr2------2--|
|-------2--0--|-4-----------2---|-0---0---2-------|-0--(0)------2------------|
|----4--------|-4--(4)------2---|-----0---4--(4)--|-0--(0)-------------5-----|
|-5-----0-----|-2--(2)----------|-----------------|-------------0-----(0)----|
|-------------|---------4--(4)--|-5--(5)--0--(0)--|-5--(5)-------------------|
Q Q Q Q Q +Q Q Q Q +Q Q +Q Q +Q Q Q


E E E E E E E E E E E E E E E E E E E E E E E E E E E E E E E E
|-----------------|-------------5-7-|-3-2-0-3-2-0-----|------------------|
|-3-2-3---2-------|---3-2-0---7-----|-0-------3---3-2-|-0----------------|
|-----------2-----|-----------------|-0-------2-------|-0-2-0-----0------|
|-4-----4-----2-4-|-0-------7-------|-----------------|-------4-2---4-2--|
|-5-------0-------|-2-------4-------|-----------------|---------0--------|
|-----------------|---------4-------|-5-------0-------|-5----------------|
H H H H H H H H


E E E E E E E E E E E E E E E E
|-----------0-(0)-------|---------------2-(2)-(2)-5-|
|-----3-(3)-------2-(2)-|-3-(3)-(3)-(3)-------------|
|--------0--2-----2--0--|----4---2------2-----------|
|-4-2-4--------2--------|-4----------5-----5---4--2-|
|-5---------0-----------|-2-------------------------|
|-0---------------------|---------------0-----------|
H H H H


E E E E E E E E E E E E E E E E
|-7-(7)-7--9--10--9--7--5--|-3--2-0-7-5-7--5-----|
|----0---------7-(7)-8-(8)-|-0----------------8--|
|-7-----0-(0)--------------|----------7----6-----|
|--------------------------|---------------------|
|--------------------------|----------0---(0)----|
|-5------------0-----------|-5-------------------|
H H Q. E Q Q


E E E E E E E E E E E E E E E E E E E E E E E E E E E E E E E E
|-2-------0-------|-----------------|---------------2-|-3-------0-----0--|
|-3-----3-2-----2-|-3-----3-2-----2-|-0-----0-----3-3-|-0---0-3-2---2-2--|
|-----2-2-----2-2-|-4---4-4-2---2-2-|-0---0-0-2---2---|---0-0-4---2-2----|
|---4-4-----2-2---|---4-4-----4-4---|---0-0---4-4-----|---0-------2------|
|---5-----0-0-----|-2-2-------4-----|---2-----5-5-----|---------0--------|
|-0---------------|---------4-------|-5---------------|-5----------------|
H H H H H H H H


E S S E E E S S S S S S E S S Q E S S S S S S
|---2--3---5--------0-2-3-2-0-3-|-------0---2--------------------|
|---3-(3)-(3)-(3)---2-----------|----3-------------2--3--5-3-2-5-|
|---2-(2)-(2)-(2)---------------|----4-(4)-(4)-----2-(2)---------|
|--------------0----------------|----4-(4)-(4)-------------------|
|-----------------0-------------|-2------------2-----------------|
|-0-----------------------------|----------------4---------------|
H H Q. E H
#2
Yes.

To do an easier version, just take the chord progression (D A Bmin F#min G D G A) and just arpeggiate the chords a couple hundred times or so.
My Gear
Line 6 Variax 600
Epiphone G-310
Ibanez RG350EX
81' Ibanez Blazer Bass

Line 6 Spider III 75
Line 6 POD X3 Live
Fender ToneMaster Mini
Boss DD-2 Delay
Boss CE-2 Chorus


My Band
Band MySpace!
Band UG Profile
#3
Yes.

What he said about arpeggiating chords.

Also, if it's too difficult, just put it to rest for a bit. It never does good when you're playing to impress people.
#4
dang ahhaha
was trying to learn it for valentines day for my gf
can u guys suggest an easier version that sounds just as good?
or a better song to learn
#6
Just strum the chord progression.
Epiphone Les Paul Standard
Fender MIM Standard Strat
Fender Deluxe Reverb
Digitech Bad Monkey
Electro Harmonix Big Muff
Ernie Ball VP Junior 250k
Dunlop Cry Baby Wah
#7
You can't get away with just strumming the chord progression because that would get REALLY boring for both the player and the listener after about... two repetitions.
Survivor of the St. John's Lockdown
Quote by SG thrasher

The thread-starter is a legend.
Seriously, who thinks "Shit, i'm gonna die, BRB, Ima' tell UG."?

Quote by The_Paranoia

Congratz man, you are a true, American Hero.
Go Schneiderman!

Gun Facts: Educate Yourself
#8
Quote by misterheeman
dang ahhaha
was trying to learn it for valentines day for my gf
can u guys suggest an easier version that sounds just as good?
or a better song to learn


'Wonderful Tonight' by Clapton. Dunno why, but women eat that one up, especially if you sing it too. It's easy to play.
PRS SC245
Various Strats
Polytone Mini Brute
Koch Studiotone XL
Quilter OD200, 101 Reverb and Mini
1958 National lap steel
Eastman El Rey 1
#10
Lemme fix that for you

Gtr I (D A D G B E) - 'Classical (drop D)'

Q=83
D A Bm F#m G D G A
4/4
Gtr I
E E E E E E E E E E E E E E E E E E E E E E E E E E E E E E E E
|-------2-------0-|-----------------|---------------2-|-----------------|
|-----3-------2---|-------3-------2-|-------0-----3---|-------0-------2-|
|---2-------2-----|-----4-------2---|-----0-----2-----|-----0-------2---|
|-0---------------|---4-------4-----|---0-------------|---0-------2-----|
|---------0-------|-2---------------|-----------------|---------0-------|
|-----------------|---------4-------|-5-------0-------|-5---------------|
H H H H H H H H


E E E E E E E E E E E E E E E E
|-2-(2)-(2)-2-0-(0)-(0)-0-|-------------------------|
|--------3-----------2----|-3-(3)-(3)-3-2-(2)-(2)-2-|
|----2-----------2--------|--------4-----------2----|
|-0-----------------------|----4-----------4--------|
|-------------0-----------|-2-----------------------|
|-------------------------|-------------4-----------|
H H H H


E E E E E E E E E E E E E E E E
|-------------------------|--------------------------|
|-0-(0)-(0)-0-------------|-0-(0)-(0)-0-2-(2)-(2)-2--|
|--------0----2-(2)-(2)-2-|--------0-----------2-----|
|----0---------------4----|----0-----------2---------|
|----------------5--------|-------------0------------|
|-5-----------0-----------|-5------------------------|
H H H H


E E E E E E E E E E E E E E E E
|-2-(2)-(2)--2--0-(0)-(0)--0--|-----------------------------|
|-3-(3)--3--(3)-2-(2)--2--(2)-|-3-(3)-(3)--3--2-(2)-(2)--2--|
|----2-------------2----------|-4-(4)--4--(4)-2-(2)--2--(2)-|
|-0---------------------------|----4-------------4----------|
|---------------0-------------|-2---------------------------|
|-----------------------------|---------------4-------------|
H H H H


E E E E E E E E E E E E E E E E
|-----------------------------|------------------------------|
|-0-(0)-(0)--0----------------|-0-(0)-(0)--0--2-(2)-(2)--2---|
|-0-(0)--0--(0)-2-(2)-(2)--2--|-0-(0)--0--(0)-2-(2)--2--(2)--|
|----0----------4-(4)--4--(4)-|----0-------------2-----------|
|------------------5----------|---------------0--------------|
|-5-------------0-------------|-5----------------------------|
H H H H


H H H H H H H H
|-2-----0-----|-----------------|-----------------|------------------|
|-3-----2-----|-3-------2-------|-0---------------|-0-------2--------|
|-------2--0--|-4-------2-------|-0-------2-------|-0-------2---2----|
|-0--4--------|-4---0---4---2---|-0-------4-------|-0-------2--------|
|-------------|-2--(2)----------|-----2---5---0---|-----2---0--(0)---|
|-------------|---------4--(4)--|-5--(5)--0--(0)--|-5--(5)-----------|
Q Q Q Q Q Q Q Q Q Q Q Q Q Q Q Q


H Q Q Q Q H Q Q Q Q Q Q a a Q. E
|----------0--|-----2---5-------|-----------------|--------------------------|
|-3-----2-----|-3---3---2-------|-0-----------3---|-0---3---3p2h3tr2------2--|
|-------2--0--|-4-----------2---|-0---0---2-------|-0--(0)------2------------|
|----4--------|-4--(4)------2---|-----0---4--(4)--|-0--(0)-------------5-----|
|-5-----0-----|-2--(2)----------|-----------------|-------------0-----(0)----|
|-------------|---------4--(4)--|-5--(5)--0--(0)--|-5--(5)-------------------|
Q Q Q Q Q +Q Q Q Q +Q Q +Q Q +Q Q Q


E E E E E E E E E E E E E E E E E E E E E E E E E E E E E E E E
|-----------------|-------------5-7-|-3-2-0-3-2-0-----|------------------|
|-3-2-3---2-------|---3-2-0---7-----|-0-------3---3-2-|-0----------------|
|-----------2-----|-----------------|-0-------2-------|-0-2-0-----0------|
|-4-----4-----2-4-|-0-------7-------|-----------------|-------4-2---4-2--|
|-5-------0-------|-2-------4-------|-----------------|---------0--------|
|-----------------|---------4-------|-5-------0-------|-5----------------|
H H H H H H H H


E E E E E E E E E E E E E E E E
|-----------0-(0)-------|---------------2-(2)-(2)-5-|
|-----3-(3)-------2-(2)-|-3-(3)-(3)-(3)-------------|
|--------0--2-----2--0--|----4---2------2-----------|
|-4-2-4--------2--------|-4----------5-----5---4--2-|
|-5---------0-----------|-2-------------------------|
|-0---------------------|---------------0-----------|
H H H H


E E E E E E E E E E E E E E E E
|-7-(7)-7--9--10--9--7--5--|-3--2-0-7-5-7--5-----|
|----0---------7-(7)-8-(8)-|-0----------------8--|
|-7-----0-(0)--------------|----------7----6-----|
|--------------------------|---------------------|
|--------------------------|----------0---(0)----|
|-5------------0-----------|-5-------------------|
H H Q. E Q Q


E E E E E E E E E E E E E E E E E E E E E E E E E E E E E E E E
|-2-------0-------|-----------------|---------------2-|-3-------0-----0--|
|-3-----3-2-----2-|-3-----3-2-----2-|-0-----0-----3-3-|-0---0-3-2---2-2--|
|-----2-2-----2-2-|-4---4-4-2---2-2-|-0---0-0-2---2---|---0-0-4---2-2----|
|---4-4-----2-2---|---4-4-----4-4---|---0-0---4-4-----|---0-------2------|
|---5-----0-0-----|-2-2-------4-----|---2-----5-5-----|---------0--------|
|-0---------------|---------4-------|-5---------------|-5----------------|
H H H H H H H H


E S S E E E S S S S S S E S S Q E S S S S S S
|---2--3---5--------0-2-3-2-0-3-|-------0---2--------------------|
|---3-(3)-(3)-(3)---2-----------|----3-------------2--3--5-3-2-5-|
|---2-(2)-(2)-(2)---------------|----4-(4)-(4)-----2-(2)---------|
|--------------0----------------|----4-(4)-(4)-------------------|
|-----------------0-------------|-2------------2-----------------|
|-0-----------------------------|----------------4---------------|
H H Q. E H
Quote by Bartleby
i tune to drop-Z and string my guitar with barbed wire.

Quote by UncleCthulhu
we r all rlaeted bcuz teh bibel sez so we r al innbreads lolo


Prime Minister of Puppets of The Australia FTW Club

One of The 9 Winners of the Official 5th MOD Contest
#12
A month? No way I'm afraid, you'd *probably* be able to crowbar something out but you won't be able to get it to sound good. You've got full barre chords in there, arpeggiating and string skipping...that's too much of a stretch so early on I'm afraid.
Actually called Mark!

Quote by TNfootballfan62
People with a duck for their avatar always give good advice.

...it's a seagull

Quote by Dave_Mc
i wanna see a clip of a recto buying some groceries.


stuffmycatswatchontv.tumblr.com