#1
I saw this on the Bass forums and I figured, why don't we try this for guitar!?

So, the next person just adds another chord, or let's say 4 max separate notes.

I'll start!


e|----------|
B|----------|
G|----------|
D|-5--------|
A|-5--------|
E|-3--------|


Before you add something, please check if it sounds a bit good.
MY RIG
ESP LTD MH-400
Roland Cube 15X
#3
e|----------|
B|----------|
G|----------|
D|-3--------|
A|-3--------|
E|-1--------|
Un demonio puro que controla su mente
#4
e|----------|
B|-1-------|
G|-0--------|
D|-22--------|
A|-3--------|
E|-16--------|
http://sheepshape.co.uk

Gretsch White Falcon

Fender Volume-Tone
TC Electronic Polytune
Digitech Whammy
Vox V847-A
Ibanez TS9
Menatone Red Snapper
Marshall EH1
Boss DD7
Boss CE5
GLX NG100
EHX Cathedral
Vox AC15CC1
George L's
EBow
#6
i say get rid of Baarmy Sheep's part & play a simple....

e|------------|
B|------------|
G|------------|
D|---3-2-----|
A|-2-----3---|
E|------------|
#7
after joey do

e|-------------|
B|-------------|
G|-------------|
D|----------5--|
A|----------5--|
E|-3---1---3--|
#8
e|---------------------------------------------------------------|
B|---------------------------------------------------------------|
G|---------------------------------------------------------------|
D|-5--3--3-----3--2------------5--7------------------------------|
A|-5--3--3--2--------3---------5--7------------------------------|
E|-3--3--1---------------3--1--3--5------------------------------|


Lets play an A5.
MY RIG
ESP LTD MH-400
Roland Cube 15X