Page 1 of 2
#1
e|----------|
B|----------|
G|----------|
D|-5--------|
A|-5--------|
E|-3--------|
#2
e|-8---------|
B|-8---------|
G|-8--------|
D|-8--------|
A|-10--------|
E|-8--------|
#3
e |--2---------------------------------
B |--3----------------------------------
G |--4----------------------------------
D |--4--------------------------------
A |--2--------------------------------
E |--2---------------------------------
Vintage V-100, EMG 81&60
Chapman ML-1

Jet City JCA20H
#5
e|---2---|
b|---3---|
g|---3---|
d|---4---|
a|---4---|
e|---2---|
1 2

Little solace comes
to those who grieve
as thoughts keep drifting
as walls keep shifting
and this great blue world of ours
seems a House of Leaves

My Rig
Quote by Will Swanson
HeavyReverb = Hero of The Pit 2010.
Quote by I-Shot-Jr
You sir are my absolute hero.
#6
e|----------
b|----------
g|----------
d|----11---
a|-----9----
e|-----9----
Sig space available, give me some praise
#7
e|----------
b|-----8---
g|----------
d|-----9---
a|-----7---
e|----------
2 Xmas's ago=Yamaha RGX 121Z

Last Xmas=ESP LTD EX50

Next Xmas=???
#8
e|-----------|
B|-8--------|
G|-7--------|
D|-6--------|
A|-7--------|
E|-----------|
#9
e|-----2----
b|-----3----
g|-----0----
d|----------
a|-----3----
e|----------
Amps:
Vox AC15CC1X
Guitars:
Ibanez S5470 (with Custom switching) | Modded Squire Strat | Sigma Acoustic | Yamaha 12-string
Pedals:
Behringer Tuner | Cheap Volume | Boss DD-3 | Boss DS-1 | JH-1 Wah
#10
Quote by hugh20
e|----------|
B|----------|
G|----------|
D|-5--------|
A|-5--------|
E|-3--------|

power chords arent chords. learn you theory!

e|-----3----|
B|-----3----|
G|-----2----|
D|---- 0----|
A|-----------|
E|-----------|
Quote by Eliyahu
Mr.Cuddles killed The Metal!!!! FUCK YES!

Quote by TheReverend724
Mr Cuddles pretty much nailed it...

Quote by thanksgiving

"Oh Mr.Cuddles, you make my pants go boom boom. I are horny. Do not disappoint I"


Viscara (my band)
#11
e|--------------10|
B|------------8----|
G|---------6-------|
D|------4----------|
A|----2------------|
E|------------------|

must be some sort of chord
#13
e|---0----
B|---0----
G|---0----
D|---0----
A|---0----
E|---0----
Quite cool in the right context.
Fender USA Telecaster
Laney VC30-210
Vox Wah
That's it :|
#14
e|-8---------|
B|-8---------|
G|-8--------|
D|-10--------|
A|-10--------|
E|-8--------|
#15
Quote by UpTheIrons!
e|---0----
B|---0----
G|---0----
D|---0----
A|---0----
E|---0----
Quite cool in the right context.


Only if it was in drop D though.



There you go.
#16
e|-10---------|
B|-10---------|
G|-10--------|
D|-9--------|
A|-10--------|
E|-10--------|

Enjoy.
The Laney Thread are big and clever. No exceptions.
#17
D-----
A--5--
F--4--
D--0--
A--0--
D--0--

*growls* GHOST OF! MOTHER!
Songs!
Something's Changed
Frost

BC Rich Mockingbird Evil Edge
Dean Palomino Vintage Sunburst
Indiana Scout Acoustic in Sparkly Blue
Kustom Arrow 16DFX, soon to be a Vox Valvetronix 50
Dimebag Custom Crybaby
Fab Tone
#18
^You forgot to tune your guitar.

e|-0---------|
B|-1---------|
G|-12-------|
D|-14-------|
A|-3---------|
E|-----------|

Have fun.
#19
Quote by mr_hankey
^You forgot to tune your guitar.

e|-0---------|
B|-1---------|
G|-12-------|
D|-14-------|
A|-3---------|
E|-----------|

Have fun.

*superglues strings to third and first fret*

oh by the way, it's open D minor tuning.
Songs!
Something's Changed
Frost

BC Rich Mockingbird Evil Edge
Dean Palomino Vintage Sunburst
Indiana Scout Acoustic in Sparkly Blue
Kustom Arrow 16DFX, soon to be a Vox Valvetronix 50
Dimebag Custom Crybaby
Fab Tone
#20
e|-1---------|
B|-5---------|
G|-6-------|
D|-14-------|
A|--21-------|
E|---20--------|

Enjoy
#21
A

A few hours later...




My Gear:

AMP: Line 6 Spider III 30 Watt
Guitars: Gibson SG Classic (with P-90 Pickups), Martin DCX1E Acoustic-Electric, and Rouge Viola Bass
#26
Quote by Eric 666
Only if it was in drop D though.


Or drop A, drop C, double drop D, any open tuning or any of a hundred other tunings
1 2

Little solace comes
to those who grieve
as thoughts keep drifting
as walls keep shifting
and this great blue world of ours
seems a House of Leaves

My Rig
Quote by Will Swanson
HeavyReverb = Hero of The Pit 2010.
Quote by I-Shot-Jr
You sir are my absolute hero.
#31
Quote by berysLTD_h-50
|-0-
|-0-
|-5-
|-3-
|-2-
|-3-

i wish i knew a jesus chord
-____-


Its Gsus.
#32
e|--0-
B|--3-
G|--3-
D|--0-
A|--0-
E|--3-

No idea what it is, but it sounds gorgeous when strummed slowly downwards.
Happy, lost and still unaware.
Quote by Alicee
I gave my brother a hand job. It was weird at first. It was weirder after.

Fender '72 Telecaster Deluxe & Epiphone ES-335 "Dot"
Laney VC15 + Ibanez TS808

I Don't Play Metal.
#36
Quote by mr_hankey
^You forgot to tune your guitar.

e|-0---------|
B|-1---------|
G|-12-------|
D|-14-------|
A|-3---------|
E|-----------|

Have fun.


It's not cheating if I use my right hand to fret the G and D Right?

oh and
E|-5-
B|-7-
G|-6-
D|-7-
A|-7-
E|-5-
I don't even shred
#37
e|-6----
B|-9----
G|-6----
D|-9----
A|-6----
E|-9----

What?
I know exactly what I think I'm doing.
Page 1 of 2