#1
Instead of...

E|-0--3--5---0-3--6-5---0--3--5---3-0-|


I think it's better like...

E|-0--3--5---0-3--5h6p5---0--3--5---3-0-|

I don't know why I posted this, It's just cooler.
Quote by SeveralSpecies
How the f*ck are you gonna get a cat to bark?


---------------------------5------8-----7-
----------------5-------------------------
------------------1-3-3-------/6----/5----
-1/3--1-1h3-------------------------------


Matt Freeman>You
#2
Quote by TheBassMan3
Instead of...

E|-0--3--5---0-3--6-5---0--3--5---3-0-|


I think it's better like...

E|-0--3--5---0-3--5h6p5---0--3--5---3-0-|

I don't know why I posted this, It's just cooler.


Yes... except, that's not the bassline.
#3
The bassline is..

G---------------------
D---------------------
A----------------------
E-3333333333333

Gear:
Fender Standard Jazz Bass
Artec Matrix Pedal Tuner
BBE Optostomp
Boss GEB 7
EHX NYC Big Muff
Ashdown MAG C410T-300
Torque T100BX
GAS-ing for:
Boss SYB5
Behringer Intelligate IG9
#5
I think the grooving eighth note bass line is the best. It's along the line of Jonno's post.
#6
Why do people totally and completely ignore the Smoke on the Water bass line? Like what the hell?
Quote by Cody_Grey102
I was looking at a used Warwick Vampyre LTD 5'er for about $200. I went home to grab my wallet and came back and some jerk with an epic beard got it already..
#8
its one of the few songs where jsut a straight thumping note is like great
i really love that one

when Moses brought down the plagues upon Egypt one of them involved Behringer amps


Dont be so humble, your not that great....