#1
The song is Silent Night, Bodom Night. Sorry it came out like that i dont know how copy it right. are those like mini chord to sweep?

|----12-15p12-------------14-17p14-17-|-15--------------------0---|
|-13----------13-------15-------------|---------------------------|
|----------------12-14----------------|---------------------------|
|-------------------------------------|---------------------------|
|-------------------------------------|---------------------------|
|-------------------------------------|---------------------------|
LOL
Last edited by SiKh22 at Feb 10, 2008,
#2
Practice slow and speed up. That's actually a very good sweep pattern to start learning your sweeps.
#3

|----12-15p12-------------14-17p14-17-|-15--------------------0---|
|-13----------13-------15-------------|---------------------------|
|----------------12-14----------------|---------------------------|
|-------------------------------------|---------------------------|
|-------------------------------------|---------------------------|
|-------------------------------------|---------------------------|



Middle, index, pinky, middle, index... I slide up to the 14, though I've seen some people hammer-on with their middle then somehow manage to continue.

"Silent Night Bodom Night" was actually the song that introduced me to sweeping.
#4
slide your index finger from the 12 to the 14 rather than using 2 fingers (at the 3rd 12 in the tab)
Vociferance


Halcyon

Quote by dead-fish
OMGZ! Chuck shuldingr iz teh master conspiraiter!

Quote by jakekilgore666
sean hart i love your avatar
#5
2 1 4 1 2 1 2 3 2 4 2 4 2
|----12-15p12-------------14-17p14-17-|-15--------------------0---|
|-13----------13-------15-------------|---------------------------|
|----------------12-14----------------|---------------------------|
|-------------------------------------|---------------------------|
|-------------------------------------|---------------------------|
|-------------------------------------|---------------------------|

If that is what you wanted.


EDIT: messed it up completely. damn!



Quote by KileManA7X
I remember my first erection. I went to my dad and was like "Do I have Aids???". I seriously thought there was something wrong with me.



#6
How do you tell where one sweep ends and the other one starts , it seems like after the 15p12, 12-13-12 look like one sweep, then the next one to me 14-15-14
LOL
#7
Quote by SiKh22
How do you tell where one sweep ends and the other one starts , it seems like after the 15p12, 12-13-12 look like one sweep, then the next one to me 14-15-14


Yup. Down and up



Quote by KileManA7X
I remember my first erection. I went to my dad and was like "Do I have Aids???". I seriously thought there was something wrong with me.