#1
Ok. my band is playing a gig pretty soon and were playing Larger Than Life by the Backstreet Boys. ha and so i was wondering if anyone had the solo tabbed out or could show me where to find one.
thanks.
leave some milk for the cows!!!!!!
#2
I actually tabbed this crap out for you... you owe me!!!

Now I had to listen to it on youtube and the guitar was kinda buried, so some things are off here and there. Here is a quick recording of me playing what I tabbed; it is close to the original:

The only time you'll ever hear me play Backstreet Boys

Each section in code is two measures long.

-8--------------------------------------------------
-11(bu13r11bu13)------------------------------------
----------------10(bu13r10)-8-10-10(bu13)-8---------
--------------------------------------------10-8-10-
----------------------------------------------------
----------------------------------------------------


----------------------------15h18p15--15h18p15--15h18p15--15h18-20-18-18(bu20)
-/16(bu18r16bu18r16bu18)-18---------18--------18--------18--------------------
------------------------------------------------------------------------------
------------------------------------------------------------------------------
------------------------------------------------------------------------------
------------------------------------------------------------------------------


-20(bu23)-15h18------------------------------------------
----------------18-------16--18(bu20r18bu20)-16----------
-------------------15h17------------------------17p15-17-
---------------------------------------------------------
---------------------------------------------------------
---------------------------------------------------------


----18-------18p15----------------------------------------------------------------
-16----16---------h18p16------18p16-----------------------------------------------
----------17------------h17p15-----h17p15------17p15------------------------------
-----------------------------------------h17p15-----h17p5------17p15--------------
---------------------------------------------------------h18p15-----h18p15------15
--------------------------------------------------------------------------h18p15--