#1
Well on the song Crazy Train by Ozzy Osbourne, there is a pretty awesome guitar fill/run at 1:20, I have the tab here -

e  --------2-----------------------------------------------------
B  -----2-------5--2------2--------------------------------------
G  4^-----------------5------5--4--2-----4--2--------------------
D  -----------------------------------4--------4--2----------p---
A  --------------------------------------------------4--2~-0-----
E  --------------------------------------------------------------


If any of you guys can play the song or just wanna be kind could you suggest the best way to play this (like which finger where) so I don't start practicing it a way that I cannot get the full speed that is needed.

Thanks
#2
I put my index finger over the 2nd fret, middle over the 3rd, ring over the 4th, little over the 5th.
#3
e  --------2-----------------------------------------------------
B  -----2-------5--2------2--------------------------------------
G  4^-----------------5------5--4--2-----[B][U][I][color="Red"]4[/COLOR][/I][/U][/B]--2--------------------
D  -----------------------------------4--------4--2----------p---
A  --------------------------------------------------4--2~-0-----
E  --------------------------------------------------------------


What would I use to play the note i highlighted, my pinky or ring finger?
#5
I roll my index finger onto it
2004 Fender American HSS Strat
Hughes And Kettner Switchblade
Schecter C-1 Hellraiser FR
Epi LP Classic
Epi G-400
Yamaha acoustic
Boss DD-3 Delay
B.Y.O.C. MXR Distortion+
Vox Wah
Ibanez TS9 Tube Screamer