Page 1 of 3
#1
Its just for fun ^_^


I dont have anything yet but im gonna go practice her in a sec so.. Start without me?
So who has some nads to go first... *steps away slowly*
#2
...mines pretty much just 26 seconds of pure noise
Vikings? What Vikings? We are but poor, simple farmers. The village was burning when we got here, and the people must have slain themselves.
#3
e--------------------------------
B----------------------------------
G-----------11-11-14-14-9-9
D9/11-11-11-11-14-14-9-9
A9/11-11-9---9--12-12-7-7
E7/9---9----------------------


this is one of the main riffs in one of the songs ive written, the timing is wrong though
Gear
ESP Ltd EC-256
Takamine G-40
Boss NS-2
Morley Bad Horsie 2
MXR Classic OD
MXR 10-Band EQ
Boss TU-3
B 52 AT-100
B 52 AT 412A

Line 6 Relay G30
#4
8/10 for jermzxsugarx

Tempo: Fast

E------------------------0----3---1----0---0
B---------------3------1----1----1---1----3
G--2--------2------0--------------0----0
D----0--------0----------------------------  
A--00-0--------------------------------------
E-----------3p-------------------------------


Edit: Tab kinda messed up. It's all chords, except for the bend on the third.
#5
A------------0-0-------------------
E--2-2------------0-0----2-2-----


took me forever to think of it.
Godin LG Signature
Samick UM-3
Ibanez Exotic Wood Series Acoustic- Burled Maple
Ibanez Artcore AWD-82
Ibanez ART-300
G&L Tribute series S-500
Squier Bullet special
Cameo Hollowbody
SX tele with neck p90

Peavey XXX Super 40 EFX
#6
lol 2 /10 Heres an easy one thats quick tempo


--------------------------------------------------------
--------------------------------------------------------
--------------------------------------------------------
--------------2----------------------------------------
--------2-------------2------2-----3--2--------------
--0-0-----0----0-0----0-0----0---------3--2-------


AND REPEAT lol

Tell me why I had to be a powerslave
I dont wanna die, Im a god, why cant I live on?
When the life giver dies, all around is laid to waste.
And in my last hour,
Im a slave to the power of death


Member Of The Jagermeister Fan Club
#7

e|-----------------------------|
B|-----------------------------|
G|-----------------------------|
D|---------5/6-x-6/7-----------|
A|--------5/6-x-6/7------0h3h5-|
D|-000000-5/6-x-6/7-0h3h5------|


@ 160 bpm
You simply MUST check out my music on
Reverbnation Downloads available here
Myspace Streaming Only


Especially for fans of Tool, APC, Avant-Garde, Ambient music, rock instrumentals, and fans of music in general. Will not disappoint.
#8
Quote by sTx

e|-----------------------------|
B|-----------------------------|
G|-----------------------------|
D|---------5/6-x-6/7-----------|
A|--------5/6-x-6/7------0h3h5-|
D|-000000-5/6-x-6/7-0h3h5------|


@ 160 bpm


7/10.



               |-3-|
  E E Q  E E E S S S   E E  E E S S S S S S S S
|--------------------|-----------------------------|
|-----4------2-4p2p0-|-----/5-4--------------------|
|--------------------|-----------------------------|
|-6-6----4-4---------|-2-2------------1-2-1--------|
|-6-6----4-4---------|-2-2------1-2-4-------4------|
|-4-4----2-2---------|-0-0--------------------0----|
#9

t = tremolo picking
G|-6--------------------------
D|-6----6t------------6t-----
A|-4-4t----5t-----4t-----7t-
E|--------------3t-------------


and


G|------------------------ -|-------------9t-7t-6t-
D|-------------9t-7t-6t- x2 -|-----7t-6t------------ x2 and then the whole thing x4
A|------7t-6t------------ -|9tt-------------------
E|-9tt-------------------- -|---------------------
R.I.P. Charles Michael "Evil Chuck" Schuldiner
B. May 13 1967 - D. December 13 2001

Quote by eggsandham2
cuz ppl hate how power metal they are cuz they think its "gay" or w.e, which is immature and dirogitory
#10
---------------------------------------------
---------------------------------------------
-----11----------------------------------------
---------10-9s6h7---------------------------------
--9------------------7-9------------------------
---------------------------------------------


16th notes repeated at 140bpm
#11
10/10^sounds good fast

--------------------------------------------------------------------------------------------------
--------------------------------------------------------------------------------------------------
--------------------------------------------------------------------------------------------------
------------9p7h9s10----------------12p10h12s14----------------0-2-0-----------------
--7*7*7*--------------10*10*10*---------------------12*12*12*-----------2-0------------
------------------------------------------------------------------------------------------3-0-2-0x
standard tuning 120 bpm
#12
to Laces Out Danny, at first I was confused by it, but then I realized what you were going for... 9/10. awesome man.
|-----------------------------------------------------------------------|
|-----------------------------------------------------------------------|
|-----7---9-7----------9-----9---------4------5-----------4------5------|
|-5-5---5------5-5---7-----7-----7---2------2-----------2------2--------|
|------------------5-----5-----5---0------0------0-0-0------0------0-0--|
|-------------------- --------------------------------------------------|


ok, now this is play with a clean guitar, prolly sounding best on the bridge pickup, or anything with a really warm sound. its all 16th notes played at tempo set at 90. And make sure to let is ring throughout...
Quote by innertom
So much down syndrome

remember UG Community? thought so.
#13
^7/10

 C Standard: BPM = 252
       PM PM PM PM PM                                           
    E  E  E  S  S  E  E   E  E     E   E  E   E  E   E   E  E   
|-------------------------------|------------------------------|
|-------------------------------|------------------------------|
|*------------------------------|------------------------------|
|*--2---------------------------|---------------------------4--|
|---2-----------------3p--2-----|--6p--3---------6p--3h--6-----|
|---0--0--0--0--0--0---------3--|---------5p--3----------------|


     PM PM PM PM PM    PM       PM    PM    PM               
  E  E  E  E  S  S  E  E  E     E  E  E  E  E  E   E   E     
-----------------------------|-----------------------------||
-----------------------------|-----------------------------||
-----------------------------|----------------------------*||
--2--------------------------|----------------------------*||
--2-----------------2-----3--|-----2-----0-----0h--2p--0---||
--0--0--0--0--0--0-----0-----|--0-----0-----0--------------||

yepp, if youre bored, put it into guitar pro and listen.
Quote by Cobain_is_king

Seth: 1
A7X: 0
#14
8/10^

My riff is in my profile under mp3s , riff 1 and 2 are the same until 30 seconds where i recorded two different parts. sorry no tab to post
Current Gear

ESP Ltd EC 1000
Schecter C1 FR

Jackson Dinky
Crap Acoustic
Crate Excalibur GX2200H
4x12cab
#15
^ unable to hear users riff.

here one

tempo fast triplet like feel:
E|---------------------------------------------------------
B|---------------------------------------------------------
G|----------------222---------------------333-----2----
D|-----------4-3------3-2------------4-3-----444--3-
A|---------3----------------3-------3--------------------
E|----222---------------------222----------------------
#16
Nice job. 7/10.

----------------------
-----------------------
-----7----------------
-----7---"-- "--------
-"-------6--5--3/5--
-5--------------------


The slides a legato slide, It's played open and the quotations are tremelo picking. (My first tab xD)
I based a song off of this riff.
#19
-2-2-3-----5/4
-2-2-3-----5/4-------2-3-2 
-0-0-3-0-0-3/2-0-1-3--------3-1
.....  ...     ..................


I can't write tab very well......It would be something like this but I didn't feel like writing the exact rhythm out since I suck at tab.

^Pretty cool riff
Quote by Fat Lard
Why would you spend tens of thousands of dollars to learn about a language you already speak? It was over before it even started dude

Quote by captainsnazz
brot pls
#20
7/10^

ill try this again, my riff can be found in my profile either riff 1 or 2 as an mp3
Current Gear

ESP Ltd EC 1000
Schecter C1 FR

Jackson Dinky
Crap Acoustic
Crate Excalibur GX2200H
4x12cab
#21
Code:
.G|-------------------------------------------------------------------------------------------------------------3|
D|-------------------------------------------------8-----------------------------------------------------------3|
A|-----------8-7----------8-7---------8-7-8-7-------------0--0--3-2----0--0--3-2---0--0--3-2-3-2----|
D|---0--0---------0--0--------0--0-------------------------0--0--3-2----0--0--3-2---0--0--3-2-3-2----|
we all know it takes a REAL man to hate some one BETTER THAN YOU
#22
It's not the best but fun to play.

Drop D tuning

palm mute this whole line
E |------------------------------------------------------------------------------------------------|
B |------------------------------------------------------------------------------------------------|
g |------------------------------------------------------------------------------------------------|
d |------------------------------------------------------------------------------------------------|
A |------------------------------------------------------------------------------------------------|
d |0-0-0-0-3-0-0-3-0-0-3-0-3--5--0-0-0-0-3-0-0-3-0-0-3-0-h5p3p0----------------|

palm mute first half of this one

E |-----------------------------------------------------------------------------------------------
B |-----------------------------------------------------------------------------------------------
g |-----------------------------------------------------------------------------------------------
d |-----------------------------------------------------------------------------------------------
A |-----------------------------------------------------------------------------------------------
d |0-0-0-0-3-0-0-3-0-0-3-0-3--5--h5p3p0-h5p3p0-h5p3p0-h5p3p0-h5p3p0-------------

then repeat with power chords on same frets

its not great but have fun

(made some adjustments)

Gear
Ibanez SV470-best guitar ever.
My amp just blew up...in the market as we speak
Last edited by Sergeant Rock at Feb 27, 2008,
#23
7/10 Drop D tuning always sounds great with any type of mutes. But pretty good.

Eb Ab Db Gb Bb Eb Tuning

X=Pick mute the previous fret(s) /slide down M=Palm mute to a harmonic-like tone
H=Pinch Harmonic

E------------------------------------------------------------------------------------
B------------------------------------------------------------------------------------
G------------------------------------------------------------------------------------
D-9xxx9xxx9xxx9xxx9xxx9/7xxx7xxx7xxx7xxx7/5xxx5xxx5xxx5xxx5/
A-7xxx7xxx7xxx7xxx7xxx7/5xxx5xxx5xxx5xxx5/3xxx3xxx3xxx3xxx3/
E-----------------------------------------------------------------------------------

E-------------------------------------------------------
B-------------------------------------------------------
G-------------------------------------------------------
D---9----7----5-------------------------------------
A-7----5----3----------------------------------------
E------------------9-7-------------------------------
---MM MM MM H H
#24
7/10^ my riff can be played in drop c or d i guess

D]-------------------------------------------------------------------------------------------------------
A]--------------------------------------------------------------------------------------------------------
F]--------------------------------------------------------------------------------------------------------
C]---4~---7h9p7-0~----------------------------------4-2---------2---------------------2-----4-----2
G]---4~---7h9p7-0~---------4--2--0h2p0-------4----4-0-2-4--4-2-0-2-0---2-4---4-2--2-2--
C]---4~---7h9p7-0~--0-0-0--0--0---------2-4-4------------------------------2---------------------

(continued)

D]--------------------------------------------------------------------------------------------------------------
A]--------------------------------------------------------------------------------------------------------------
F]--------------------------------------------------------------------------------------------------------------
C]-------------------------------------------------------------------------------------------------------------------------4~
G]--2-2-0h2p0--------2h4p2--2h4p2--2h4p2--2h4p2---0----2h4p2--2h4p2-0h2p0--0h2p0-------4~
C]------------------0---0--------0---------0---------0-----------0-0--0--------0--------0---------0-----------2-4-4~


This Riff can be heard in my profile, nobody rated it last time
Current Gear

ESP Ltd EC 1000
Schecter C1 FR

Jackson Dinky
Crap Acoustic
Crate Excalibur GX2200H
4x12cab
Last edited by Lettherebeshred at Feb 27, 2008,
#25
D||-----------------------------------------|-----------------------------------------------||
A||-----------------------------------------|-----------------------------------------------||
F||----------------------------------------|------------------------------------------------||
C||--------4----------------------5-------|-----------4---------------------5-------------||
G||------5---5--------------5-4----4-5-4|------5---5--------------5--4---4-5-4------||
C||--0-0-------4-5-6-5-4----------------|--0-0--------4-5-6-5-4---------------------||

A bit sloppy on here, but yeah. Its fun. Drop C of course, palm mute all the ones on the bottom string.


10/10 above. Sweet riff. Pretty catchy.

My things:
Bowes SLx7
Washburn WG587
Washburn X40Pro
Washburn X50
Washburn HM24
Washburn WR150
Laguna LE200s
Arietta Acoustic
First Act
Valveking 112
VHT Deliverance

#26
To the riff above 9/10
" = tremolo picking
all of the root notes on the first riff are palm muted
Standard E
Going for a black metal riff here, 132 bpm, 16th notes

|-----------------------------------------------------------------------
|-7------------7-6-----6-----6-----6--------------------------------
|-7-----7-----7-6-----6-----6-----6-8-----8----8--7-----7-----7-
|-5-5"-5-5"-5-4-4"-4-4"--4-4"-4-8-----8----8--7-----7-----7-
|---------------------------------------6-6"-6-6"-6--5-5"-5-5"-5-


and then a folk metal riff here

Standard E
116 bpm 8 notes. Sounds cool if you put the right stops in it

D|---------4-5-4-5---------4-5-4-2-|
A|-3-0-2------------3-0-2-----------|
R.I.P. Charles Michael "Evil Chuck" Schuldiner
B. May 13 1967 - D. December 13 2001

Quote by eggsandham2
cuz ppl hate how power metal they are cuz they think its "gay" or w.e, which is immature and dirogitory
Last edited by Slaytanic1993 at Feb 27, 2008,
#28
Quote by XxBlackenedxX
No one rated my riff...



It;s pretty cool. Sounds kinda familiar, but 8/10
R.I.P. Charles Michael "Evil Chuck" Schuldiner
B. May 13 1967 - D. December 13 2001

Quote by eggsandham2
cuz ppl hate how power metal they are cuz they think its "gay" or w.e, which is immature and dirogitory
#30
Opps--I forgot to rate the one above me. Very nice..better than mine...haha 7/10

btw..this thread rules!!!!!!!!!
Last edited by Sergeant Rock at Feb 27, 2008,
#31
None too rate?

Well, heres mine, it's simple, slow, and not so great!



e---------------------------------------------------------
b---------------------------------------------------------
g---------------------------------------------------------
D--2--------2---------2------------2--------------------------
A----2---------2----------2----------2------------------------
E-0----0-0------0-1----------1-1----1-----------------------------
#33
Quote by GFX
None too rate?

Well, heres mine, it's simple, slow, and not so great!



e---------------------------------------------------------
b---------------------------------------------------------
g---------------------------------------------------------
D--2--------2---------2------------2--------------------------
A----2---------2----------2----------2------------------------
E-0----0-0------0-1----------1-1----1-----------------------------


Repost =/
#34
D||--0-3-2-----2-----------------5-3-0-3--||
A||---------0-3----0-3-5-0-3-5----------||
F||----------------------------------*||
C||----------------------------------*||
G||-----------------------------------||
C||-----------------------------------||


---12-15-14----------14-------------------------17-15-12-15--||
---------------12-15------12-15-17-12-15-17--------------||
*--------------------------------------------------*||
*--------------------------------------------------*||
----------------------------------------------------||
----------------------------------------------------||

NEW IDEA.
Played as a harmony btw.

My things:
Bowes SLx7
Washburn WG587
Washburn X40Pro
Washburn X50
Washburn HM24
Washburn WR150
Laguna LE200s
Arietta Acoustic
First Act
Valveking 112
VHT Deliverance

#35
Are people against rating the riff above on this forum?

e---------------------------------------------------------
b---------------------------------------------------------
g---------------------------------------------------------
D--2--------2---------2------------2--------------------------
A----2---------2----------2----------2------------------------
E-0----0-0------0-1----------1-1----1-----------------------------

I'd say 7 or 8 out of ten for the above
#36
4/10. The first fret on the low E string doesn't sound so good ...


E|---------------------------------|---------------------------------|---------------------------------|---------------------------------|
B|---------------------------------|---------------------------------|---------------------------------|---------------------------------|
G|---------------------------------|---------------------------------|---------------------------------|---------------------------------|
D|---------4---------4---------4-0-|---------4---------4---------4-0-|---------4------------4----------|---------4-------------4---------|
A|-------5-----------------5-0-----|-------5-----------------5-0-----|-------5-------4---5-----5-7-4-5-|-------5-----------5-----4-5-4---|
E|-7---------7---6-------6---------|-7---------7---6-------6---------|-7---------7---------------------|-7---------7---6-----------------|
METAR KTIK 040043Z COR RMK TORNADO 1W MOV NE. EVACUATING STATION
#37
9/10 for above,really nice power ballad or instrumental riff

As to my riff:

D----5-----------------------------------------------
A-7--3---5-----------3--2--5----------5-3-------- 3 times then
E-5------3---3-3-3--1--1--3--3-3-3-------5-3-

D-----5-------------------------
A-7--3---5----------3--2--3-- palm mute everything beside power chords
E-5------3---3-3-3-5--3--1-
Current situation:
Proud owner of Jackson JS30RR and Roland Cube 30X
#38
...subscribing...
Quote by synpet713192
I can't help you, but you have the greatest avatar ever


Quote by Colgate Total
You can do what I suggested and ignore common sense for the promise of money.




Guitar: Cort G210
Amp: Roland Cube-15x

#39
Megallica...Awsome 9.5\10
Don't feel bad..I have a fender frontman 12g

I got another one.
Standard tuning, played clean,(actually sounds better acustic) medium speed, but not too slow or it sounds bad.

E---------------------------------------------------0----------------------------------------------
B---3-----3-----3-----3------3-----3-----3---3---------3-----3-----3-----3-----3-----3----
g-----0-----0-----0-----0------0-----0-----0--------------0-----0-----0-----0-----0--------
d-------------------------------------------------------------------------------------------------
a-3-----2-----0------------3-----2-----3--------------3-----2-----0------------3-----2------
E--------------------3-------------------------------------------------------3-----------------0--
and repeat....keep your ring finger on the B string the whole time.start with your middle finger on the 3rd fret of the A and you pointer on the 2nd fret of the A. pretty easy from there.

I don't know how easy that is to read, but sounds good as an intro or something.
Last edited by Sergeant Rock at Feb 28, 2008,
#40
^9/10,very sweet sounding intro

A riff that came to me from nowhere yesterday:

D----5-4-3-6-5-4-3-----------------3-2-------
A----------------------5-4-3-2------------------ 4 times,then
E-0------------------------------5-4-------------

G--------2-----------2-------------4~--
D---2-3---3-2-3-4---4-3~-5-4------- 4 times
A-----------------------------------------
E-0--------------------------------------
Current situation:
Proud owner of Jackson JS30RR and Roland Cube 30X
Page 1 of 3